Frere Jacques (brother John) Tabulatur von Frere Jacques Song

Ukulele Tabs ohne Akkorde.

Tab ins SongBook hinzufügen
Tablature / ChordsFont size: A- A A+

Sie wissen nicht wie man einen Tab oder Akkorde liest ?
Schauen Sie sich diesen uke Unterricht an:

Ukulelen-Unterricht

# This is a simple tune to play so it won't take a long time to master.
# Drop a line @ - [email protected]
# Tabbed by Fitzzz15
# Standard Tuning

---------------------------
------1-3-5-1--1-3-5-1-----
---------------------------
---------------------------

---------------------------
---------------------------
----9---12---9---12--------
------4--------4-----------

-3-5-3-1-------3-5-3-1-----
---------5-1-----------5-1-
---------------------------
---------------------------

---------------------------
--1----1---1----1----------
-----2--------2------------
---------------------------

 

Tab Kommentare (1)
Sie müssen angemeldet sein, um an der Diskussion teilnehmen zu können
oder Beitreten

 

sambono5 avatar
Most of it's right but in the second line i'd put on the A string as 0-1-3---0-1-3- and I think at the end it should go down to open (0) on the C string rather than 2.
12 Aug 2010
Über dieses Lied

Keine Informationen über dieses Lied.