Crosses Tab de uke por Jose Gonzalez

4 Acordes usados na música: A, D, F#, B

Avalie a canção!
ImprimirAdicionar tab ao seu Livro de Música

Tablature / Chords (

Font size: A- A A+

Artista: 
Álbum: 
Ano:  2006
Dificuldade: 
4.5
(Intermediario)
Tom: BmCifras e Tablatura
Afinação original: +1.0 passo(s) (afinação original)
Tab/cifra de progressão de acordes organizados para o Ukulele.
Jos� Gonz�lez- Crosses (Ukulele) 

It's not perfect, and I didn't intend it to be. However, it is
a nice song to play and there are no uke tabs for it anywhere
as far as I can tell. I've given it my best shot as it's quite
a difficult song to tab even on guitar. You can play it over
and over but there are a few 8th bar alternations which I
haven't tabbed.

Tuning is A A D D F# F# B B
BUT
You can just capo the second fret on standard G G C C E E A A tuning.

You can play it in the method shown below, but alternatively
instead of alternating the plucking, play the song as chords.
i.e. first bar would be

B ||---3-----3-----3-----2-----|
F#||*--5-----5-----5-----3-----|
D ||*--0-----0-----0-----0-----|
A ||---0-----0-----0-----0-----|

but of course you'd add in a few strums.

Main tab:

B ||---3-----3-----3-----2-----|--0-----0-----0-----0-----|
F#||*--5-----5-----5-----3-----|--1-----1-----1-----1-----|
D ||*-----0-----0-----0-----0--|-----0-----0-----0-----0--|
A ||---------------------------|--------------------------|


--0-----0-----0-----2-----|--3-----5-----7-----5-----|
--1-----1-----1-----3-----|--5-----5-----5-----5-----|
-----0-----0-----0-----0--|-----0-----0-----0-----0--|
--------------------------|--------------------------|


--3-----3-----3-----2-----|--0-----0-----0-----0-----|
--5-----5-----5-----3-----|--1-----1-----1-----1-----|
-----0-----0-----0-----0--|-----0-----0-----0-----0--|
--------------------------|--------------------------|


--0-----0----------------|--0-----0-----0-----0------||
--1-----1-----0--1--3----|--0-----0-----0-----0-----*||
-----0-----0-------------|-----0-----0-----0-----0--*||
-------------------------|---------------------------||

Enjoy!

⇢ Não satisfeito com esta tablatura? Ver 1 outra(s) versão(ões)

Tab de uke por , 10 Jan 2010

Comentários da tab (0)

Nenhum comentário ainda :(
Precisa de ajuda, tem uma dica para compartilhar ou simplesmente quer falar sobre essa música? Inicie a discussão!

Tem algo para dizer?
Compartilhe seus Padrões de batida, acordes ou dicas para tocar esta aba!

Top Tablaturas e Cifras por Jose Gonzalez, não perca estas músicas!

Sobre esta música: Crosses

Nenhuma informação sobre esta música.

Você cobriu Crosses em seu Ukulele? Compartilhe seu trabalho!
Enviar um cover