Here Comes The Sun taby ukulele według The Beatles

9 Chwyty użyte w piosence: A, D, E7, E7sus4, B7, C, G, D/F#, E

WydrukujDodaj tab do śpiewnika
Tablature / ChordsFont size: A- A A+

Nie wiesz jak przeczytać tab lub chwyt ? Sprawdź te lekcje ukulele:

Intro: 
A A D D E7 E7 E7sus4 E7sus4 E7 E7
A|-4-0-2-4-0-|--4-2---0---0-|---0-2-0--------|-2-2-2-2--2--|
E|-0-0-0-0-0-|--------------2-|-----------------|-0-0-0-0--0--|
C|-1--------1-|---------------2-|----------------|-2-2-2-2--2--|
g|-2---------2-|--------------2-|-----------------|-1-1-1-2--1--|

A A D D E7 E7 (let ring)
|---4-0-2-4-0-|--4-2-0---0-|--4---2--0---2-|-(2)-----------||
|---5---5-5----|----0--0--2-|---------------0-|-(0)-----------||
|-4-------------|-------1---2-|--------------2-|-(2)-----------||
|---------------|------------2-|--------------1-|-(1)-----------||


CHORUS:
A A D D B7 B7///
|-4---2-----4---0--|--4---0---2--4--|-0---4---2-----0-|-2--------------|
|-0---0-----0---0--|--0---0---0--0--|-2---2---2-----2-|-2--------------|
|-1---1-----1---1--|--1---1---1--1--|-2---2---2-----2-|-3--------------|
|-2---2-----2---2--|--2---2---2--2--|-2---2---2-----2-|-2--------------|
Here comes... Doo... Here comes...

A A
|-0----2----0-----|-------2-----2-----|2-----2----------||
|-0----0----0-----|-----5-----5-----5-|----5---5-4-----||
|-1---------------|-4/6-----4-----2---|--4---------6-4--||
|-2---------------|-------------------|--------------------||
It's...


VERSE:
A A D D E7 E7 E7sus4 E7sus4 E7 E7
|-4--0--2--4----0--|-4----2----0----0--|--0----2---0---0--|-2--2--2--2-|
|-0--0--0--0----0--|-0----0----0----2--|--2----2---2---2--|-0--0--0--0-|
|-1--1--1--1----1--|-1----1----1----2--|--2----2---2---2--|-2--2--2--2-|
|-2--2--2--2----2--|-2----2----2----2--|--2----2---2---2--|-1--1--2--1-|
Little... It's been... lonely win___ter



A A D D E7 E7///
E7sus4 E7sus4/// E7 E7/
|-4--0--2--4----0--|-4----2----0----0---|--4----2---0----2-----|-2----------2-|
|-0--0--0--0----0--|-0----0----0----2---|--2----2---2----0-----|-0----------0-|
|-1--1--1--1----1--|-1----1----1----2---|--2----2---2----2-----|-2----------2-|
|-2--2--2--2----2--|-2----2----2----2---|--2----2---2----1-----|-2----------1-|
Little... ' It feels.... since...

CHORUS:
A A D D B7 B7///
|-4---2-----4---0--|--4---0---2--4--|-0---4---2-----0-|-2--------------|
|-0---0-----0---0--|--0---0---0--0--|-2---2---2-----2-|-2--------------|
|-1---1-----1---1--|--1---1---1--1--|-2---2---2-----2-|-3--------------|
|-2---2-----2---2--|--2---2---2--2--|-2---2---2-----2-|-2--------------|
Here comes... Doo... Here comes...

A A
|-0----2----0-----|-------2-----2-----|2-----2----------||
|-0----0----0-----|-----5-----5-----5-|----5---5-4-----||
|-1---------------|-4/6-----4-----2---|--4---------6-4--||
|-2---------------|-------------------|--------------------||
It's alright.


VERSE 2:
A A D D E7 E7 E7sus4 E7sus4 E7 E7
|-4--0--2--4----0--|-4----2----0----0--|--0----2---0---0--|-2--2--2--2-|
|-0--0--0--0----0--|-0----0----0----2--|--2----2---2---2--|-0--0--0--0-|
|-1--1--1--1----1--|-1----1----1----2--|--2----2---2---2--|-2--2--2--2-|
|-2--2--2--2----2--|-2----2----2----2--|--2----2---2---2--|-1--1--2--1-|
Little... The... returning... fa___ces.

A A D D E7 E7///
E7sus4 E7sus4/// E7 E7/
|-4--0--2--4----0--|-4----2----0----0---|--4----2---0----2-----|-2----------2-|
|-0--0--0--0----0--|-0----0----0----2---|--2----2---2----0-----|-0----------0-|
|-1--1--1--1----1--|-1----1----1----2---|--2----2---2----2-----|-2----------2-|
|-2--2--2--2----2--|-2----2----2----2---|--2----2---2----1-----|-2----------1-|
Little... It seems.... since...


CHORUS:
A A D D B7 B7///
|-4---2-----4---0--|--4---0---2--4--|-0---4---2-----0-|-2--------------|
|-0---0-----0---0--|--0---0---0--0--|-2---2---2-----2-|-2--------------|
|-1---1-----1---1--|--1---1---1--1--|-2---2---2-----2-|-3--------------|
|-2---2-----2---2--|--2---2---2--2--|-2---2---2-----2-|-2--------------|
Here comes... Doo... Here comes...

A A
|-0----2----0-----|-------2-----2-----|2-----2----------||
|-0----0----0-----|-----5-----5-----5-|----5---5-4-----||
|-1---------------|-4/6-----4-----2---|--4---------6-4--||
|-2---------------|-------------------|--------------------||
It's alright.


Bridge (play once without lyrics, then play four more times)

C C G G D/F# D/F# D D A A/// E7 E7///
||---8-10--------|------------|0----------|-2-----||
||-8--------7-10-|---5-10---2-|---0-------|-0-----||
||--------7------|-6------2---|---1-------|-2-----||
||---------------|------------|---2-------|-1-----||
Sun sun sun here it comes.

(Play this section only once after the fourth repition of the above)
E7sus4 E7sus4/// E7 E7/// E E///
|-2---------|-2--------|-2--------||
|-0---------|-0--------|-4--------||
|-2---------|-2--------|-4--------||
|-2---------|-1--------|-4--------||







VERSE 3:
A A D D E7 E7 E7sus4 E7sus4 E7 E7
|-4--0--2--4----0--|-4----2----0----0--|--0----2---0---0--|-2--2--2--2-|
|-0--0--0--0----0--|-0----0----0----2--|--2----2---2---2--|-0--0--0--0-|
|-1--1--1--1----1--|-1----1----1----2--|--2----2---2---2--|-2--2--2--2-|
|-2--2--2--2----2--|-2----2----2----2--|--2----2---2---2--|-1--1--2--1-|
Little Darlin' It feel... slowly mel___ting

A A D D E7 E7///
E7sus4 E7sus4/// E7 E7/
|-4--0--2--4----0--|-4----2----0----0---|--4----2---0----2-----|-2----------2-|
|-0--0--0--0----0--|-0----0----0----2---|--2----2---2----0-----|-0----------0-|
|-1--1--1--1----1--|-1----1----1----2---|--2----2---2----2-----|-2----------2-|
|-2--2--2--2----2--|-2----2----2----2---|--2----2---2----1-----|-2----------1-|
Little... It seems... since... clear.


CHORUS :
A A D D B7 B7///
|-4---2-----4---0--|--4---0---2--4--|-0---4---2-----0-|-2--------------|
|-0---0-----0---0--|--0---0---0--0--|-2---2---2-----2-|-2--------------|
|-1---1-----1---1--|--1---1---1--1--|-2---2---2-----2-|-3--------------|
|-2---2-----2---2--|--2---2---2--2--|-2---2---2-----2-|-2--------------|
Here comes... Doo... Here comes...

A A
|-0----2----0-----|-------2-----2-----|2-----2----------||
|-0----0----0-----|-----5-----5-----5-|----5---5-4-----||
|-1---------------|-4/6-----4-----2---|--4---------6-4--||
|-2---------------|-------------------|--------------------||
It's alright.

CHORUS :

End




ENJOY AND RATE!!!!

 

Komentarze do tabów (2)
musisz być zalogowany aby dołączyć do dyskusji
lub Zarejestruj

 

beatleboy95 avatar
amazing tab, very well constructed, easy to follow, and sounds great keep it up!!
02 Mar 2010
Ciaran avatar
flag for CA(ISO2) (Vancouver)
misaligned and doesn't fit on page...
11 Dec 2009
O tej piosence

Brak informacji o tej piosence.