Song Of Storms Tab uke di Zelda

Tab ukulele senza accordi.

8.7/10
StampaAggiungi Tab al tuo album

Tablature / Chords (Brano intero)

Font size: A- A A+

Artista: 
Album:  sconosciuto
Chiave: sconosciutoTablature (senza accordi)
A-----5-----5--7--8--7--8--7--3--0---
E---5-----5--------------------------
C-5-----5----------------------------
G------------------------------------

A-0----------------------------------
E-----1--3--5--5---1--3--------------
C---2------------2------4------------
G------------------------------------

A-----5-----5--7--8--7--8--7--3--0---
E---5-----5--------------------------
C-5-----5----------------------------
G------------------------------------

A-0----------------------------------
E-----1--3--5--5---------------------
C---2------------2-------------------
G------------------------------------

⇢ Non sei soddisfatto di questa tablatura? Visualizza 3 altre versioni

Tab uke di , 16 set 2011

Commenti Tab (0)

Ancora nessun commento :(
Hai bisogno di aiuto, vuoi condividere un consiglio o vuoi semplicemente parlare di questo brano? Inizia la discussione!

Qualcosa da dire?
Condividi i tuoi schemi di pennata, accordi o consigli per suonare questa scheda!
oppure Registrati

Info brano: Song Of Storms

Nessuna informazione su questo brano.

Hai fatto una cover di Song Of Storms sul tuo Ukulele? Condividi il tuo lavoro!
Invia una cover