Stranger Tab uke di VersaEmerge

Tab ukulele senza accordi.

StampaAggiungi Tab al tuo album
Tablature / ChordsFont size: A- A A+

Non sai come leggere una Tab o un accordo? Dai un'occhiata a queste lezioni di uke:

A|----7-----7-----7-----7----------------------------|
E|--5-----5-----5-----5-----5-1---5-1---5-1---5-1----|
C|---------------------------------------------------|
G|------5-----5-----5-----5-----5-----5-----5-----5--|

A|---------------------------------------------------|
E|--5-3---5-3---5-3---5-3---5-1---5-1---5-1---5-1----|
C|---------------------------------------------------|
G|------5-----5-----5-----5-----5-----5-----5-----5--|

A|--------------------------------------------------------------------------|
E|-----5--3-----5--3-----5--3-----5--3--6--5-----6--5-----6--5-----6--5-----|
C|--------------------------------------------5--------5--------5--------5--|
G|--7--------7--------7--------7--------------------------------------------|

A|---------------------------------------------------8--7--|
E|--5-1---5-1---5-1---5-1---6-1---6-1---6-1---6-1----6--5--|
C|------2-----2-----2-----2-----2-----2-----2-----2--2-----|
G|------------------------------------------------------6--|

A|--3--------------|--3--2--|
E|--1--5--3--5--5--|--1--0--|
C|--7--2--0--2--4--|--7--6--|
G|--5--7--5--7--6--|--5--4--|

A|----7-----7-------------------------------------|
E|--5-----5-----5-1---5-1---5-3---5-3---5-1---5---|
C|------------------------------------------------|
G|------5-----5-----5-----5-----5-----5-----5-----|

A|----7-----7-----7-----7----------------------------|
E|--5-----5-----5-----5-----5-1---5-1---5-1---5-1----|
C|---------------------------------------------------|
G|------5-----5-----5-----5-----5-----5-----5-----5--|

A|---------------------------------------------------|
E|--5-3---5-3---5-3---5-3---5-1---5-1---5-1---5-1----|
C|---------------------------------------------------|
G|------5-----5-----5-----5-----5-----5-----5-----5--|
s s
A|------------------------------------------5---------5---find5ng la-me5reaa--oo5ooooo-oo5ooooo-oooooooo-oon-
C|-----5--a-----5--o-----5--o-----5--o--5--5--o--5--G|--16-----7--16-----7--16-----7--16-----7--14-----5--14--
A|------------------------------------|
E|--5-------4-------------------------|
C|-----4------3-------4-----22222222--|
G|-------5------5--4----5---77777777--|

A|-------------------------------------------|
E|--5-------4-----------------------------|
C|-----4------3---------------------------|
G|-------5------5--4--5--12---9---13---14----|

A|----7-----7-------------------------------------|
E|--5-----5-----5-1---5-1---5-3---5-3---5-1---5---|
C|------------------------------------------------|
G|------5-----5-----5-----5-----5-----5-----5-----|

A|---------------------------------------|
E|-----5--3-----5--3---6-5------6-5------|
C|--------------------------5--------5---|
G|--7--------7--------7--------7---------|

 

Commenti Tab (0)
Ancora nessun commento :(
Hai bisogno di aiuto, vuoi condividere un consiglio o vuoi semplicemente parlare di questo brano? Inizia la discussione!

Devi essere connesso per partecipare alla discussione
oppure Registrati

 

Info brano

Nessuna informazione su questo brano.