The Little Drummer Boy Tab uke di Traditional English Christmas Carol

Tab ukulele senza accordi.

8/10
StampaAggiungi Tab al tuo album

Tablature / Chords (Brano intero)

Font size: A- A A+

Album:  sconosciuto
Chiave: sconosciutoTablature (senza accordi)
Come they told me, pa rum pum pum  pum,

A|----------------------------------------|
E|-------------0--0--0-----1---0---1----0-|
C|--0----2--------------------------------|
G|----------------------------------------|

A A new born king to see, pa rum pum pum pum,

A|----------------------------------------|
E|--------0---0---0---0---1---0---1----0--|
C|0--0--2---------------------------------|
G|----------------------------------------|

Our finest gifts we bring, pa rum pum pum pum,

A|----------------------------0-----------|
E|----0---1-----3---3---3-------3--1--0---|
C|-2------------------------------------2-|
G|----------------------------------------|

To lay before the king, Pa rum pum pum-pum

A|-------------------------0---1--0-------|
E|----0---1-----3---3---3------------3--1-|
C|-2--------------------------------------|
G|----------------------------------------|

Rum pum pum-pum, Rum pum pum-pum

A|-0--------------------------------------|
E|---3--1--0--------3--1--0---------------|
C|----------------------------2-----------|
G|----------------------------------------|

So to honor Him, Pa rum pum pum-pum

A|----------------------------------------|
E|-------------0--0--0-----1---0---1----0-|
C|--0----2--------------------------------|
G|----------------------------------------|

When we come.

A|----------------------------------------|
E|----------------------------------------|
C|--2--0---2--0---------------------------|
G|----------------------------------------|


Little baby, Pa rum pum pum-pum

A|----------------------------------------|
E|-------------0--0--0-----1---0---1----0-|
C|--0----2--------------------------------|
G|----------------------------------------|

I am a poor boy too, Pa rum pum pum-pum

A|----------------------------------------|
E|--------0---0---0---0---1---0---1----0--|
C|0--0--2---------------------------------|
G|----------------------------------------|

I have no gift to bring, Pa rum pum pum-pum

A|----------------------------0-----------|
E|----0---1-----3---3---3-------3--1--0---|
C|-2--------------------------------------|
G|--------------------------------------2-|

That's fit to give our King, Pa rum pum pum-pum

A|-------------------------0---1--0-------|
E|----0---1-----3---3---3------------3--1-|
C|-2--------------------------------------|
G|----------------------------------------|

Rum pum pum-pum, Rum pum pum-pum

A|-0--------------------------------------|
E|---3--1--0--------3--1--0---------------|
C|----------------------------2-----------|
G|----------------------------------------|

Shall I play for you, Pa rum pum pum-pum

A|----------------------------------------|
E|-------------0--0--0-----1---0---1----0-|
C|--0----2--------------------------------|
G|----------------------------------------|

On my drum.

A|----------------------------------------|
E|----------------------------------------|
C|--2--0---2--0---------------------------|
G|----------------------------------------|


Mary nodded, Pa rum pum pum-pum

A|----------------------------------------|
E|-------------0--0--0-----1---0---1----0-|
C|--0----2--------------------------------|
G|----------------------------------------|

The ox and lamb kept time, Pa rum pum pum-pum

A|----------------------------------------|
E|--------0---0---0---0---1---0---1----0--|
C|0--0--2---------------------------------|
G|----------------------------------------|

I played my drum for Him, Pa rum pum pum-pum

A|----------------------------0-----------|
E|----0---1-----3---3---3-------3--1--0---|
C|-2--------------------------------------|
G|--------------------------------------2-|

I played my best for Him, Pa rum pum pum-pum

A|-------------------------0---1--0-------|
E|----0---1-----3---3---3------------3--1-|
C|-2--------------------------------------|
G|----------------------------------------|

Rum pum pum-pum, Rum pum pum-pum

A|-0--------------------------------------|
E|---3--1--0--------3--1--0---------------|
C|----------------------------2-----------|
G|----------------------------------------|

Then He smiled at me, Pa rum pum pum-pum

A|----------------------------------------|
E|-------------0--0--0-----1---0---1----0-|
C|--0----2--------------------------------|
G|----------------------------------------|

Me and my drum

A|----------------------------------------|
E|----------------------------------------|
C|--2--0---2--0---------------------------|
G|----------------------------------------|

Tab uke di , 07 dic 2020

Commenti Tab (0)

Ancora nessun commento :(
Hai bisogno di aiuto, vuoi condividere un consiglio o vuoi semplicemente parlare di questo brano? Inizia la discussione!

Qualcosa da dire?
Condividi i tuoi schemi di pennata, accordi o consigli per suonare questa scheda!
oppure Registrati

Top Tabs e accordiby Traditional English Christmas Carol, non perdere queste canzoni!

Info brano: The Little Drummer Boy

Nessuna informazione su questo brano.

Hai fatto una cover di The Little Drummer Boy sul tuo Ukulele? Condividi il tuo lavoro!
Invia una cover