God Rest You Merry, Gentlemen Tab uke di Traditional English Christmas Carol

Tab ukulele senza accordi.

9/10
StampaAggiungi Tab al tuo album

Tablature / Chords (Canzone semplificata)

Font size: A- A A+

Album:  sconosciuto
Chiave: sconosciutoTablature (senza accordi)
A|-----------2----2-----0-----------------------------------0----2----|
E|--0---0--------------------3----2----0------0---2----3--------------|
C|-----------------------------------------2--------------------------|
G|--------------------------------------------------------------------|




A|-----------2---2----0----------------------------------------0----2-|
E|--0---0-----------------3-----2----0----------0-----2---3-----------|
C|----------------------------------------2---------------------------|
G|--------------------------------------------------------------------|





A|-2------3----0-----2----3----5---7---2---0-------------------|
E|---------------------------------------------3----0----2---3-|
C|-------------------------------------------------------------|
G|-------------------------------------------------------------|



A|---0------0------2-----3-----2-----2---0-------------------0---------0-|
E|------3-------------------------------------3----2-----0--------3------|
C|-----------------------------------------------------------------------|
G|-----------------------------------------------------------------------|



A|---2----3-----5----7-----2-----0------------------------|
E|-------------------------------------3---------2------0-|
C|--------------------------------------------------------|
G|--------------------------------------------------------|

Tab uke di , 22 nov 2020

Commenti Tab (0)

Ancora nessun commento :(
Hai bisogno di aiuto, vuoi condividere un consiglio o vuoi semplicemente parlare di questo brano? Inizia la discussione!

Qualcosa da dire?
Condividi i tuoi schemi di pennata, accordi o consigli per suonare questa scheda!
oppure Registrati

Top Tabs e accordiby Traditional English Christmas Carol, non perdere queste canzoni!

Info brano: God Rest You Merry, Gentlemen

Nessuna informazione su questo brano.

Hai fatto una cover di God Rest You Merry, Gentlemen sul tuo Ukulele? Condividi il tuo lavoro!
Invia una cover