Isabella’s Lullaby (The Promised Neverland OST) Tab uke di Themes

Tab ukulele senza accordi.

9/10
StampaAggiungi Tab al tuo album

Tablature / Chords (Canzone semplificata)

Font size: A- A A+

Artista: 
Album:  sconosciuto
Chiave: sconosciutoTablature (senza accordi)
A|------5------6------8------6------5-----6-----8----6-----------------------|
E|--6---6---6--6--6---6---6--6---6--6--6--6--6--6----6-----------------------|
C|------5------6------8------6------5-----6-----8----6-----------------------|
G|---------------------------------------------------------------------------|


A|-----------0---5--3---1--0----------0--------------------------------------|
E|-----2--------------------------1--------0---------------------------------|
C|--2------------------------------------------------2-----------------------|
G|---------0------------------------------------0----------------------------|

A|-----0--1--3---1--0-------7--3---0--3---5-0--3---5-0-----------3---0-------|
E|---------------------------------------------------------------------------|
C|-0-2------------------------------------------------------2----------------|
G|----------------------0-------------------------------0--------------------|


A|------------0---5--3---1--0-----------0--3----0---5------------------------|
E|----2----------------------------1-----------------------------------------|
C|--2------------------------------------------------------------------------|
G|---------0-----------------------------------------------------------------|

A|-5-8--7-3-0-5---12--7--------------------------------0----12---------------|
E|-----------------------------0-1-0------0--1------0------------------------|
C|-----------------------0---2---------2-------------------------------------|
G|---------------------------------------------0-----------------------------|


A|--0-5-7-8---7--5-3-0-----------3--0---------------------1---0-----0--------|
E|-----------------------------1----------0--1-------------------------------|
C|-------------------------------------2------------0------------------------|
G|----------------------0--0---------------------0-----0----------0----------|

A|-0-5-7-8---7-8--10---10---13---12--10--8-5-7-8--10-12--7--3-0-5---12--7----|
E|-------------------3-------------------------------------------------------|
C|---------------------------------------------------------------------------|
G|---------------------------------------------------------------------------|


A|-0-5-7-8--7--5-3-0-----------3--0---------------------1---0----0-----------|
E|-------------------------1-------------0--1--------------------------------|
C|------------------------------------2-----------0--------------------------|
G|-------------------0--0----------------------0-----0---------0-------------|

A|-0-5-7-8---7-8-10----10--13--12-10-8----15-12-----12----7------10---7---5--|
E|------------------3----------------------------10-----------8--------------|
C|---------------------------------------------------------------------------|
G|---------------------------------------------------------------------------|

Tab uke di , 03 apr 2021

Commenti Tab (0)

Ancora nessun commento :(
Hai bisogno di aiuto, vuoi condividere un consiglio o vuoi semplicemente parlare di questo brano? Inizia la discussione!

Qualcosa da dire?
Condividi i tuoi schemi di pennata, accordi o consigli per suonare questa scheda!
oppure Registrati

Info brano: Isabella’s Lullaby (The Promised Neverland OST)

Nessuna informazione su questo brano.

Hai fatto una cover di Isabella’s Lullaby (The Promised Neverland OST) sul tuo Ukulele? Condividi il tuo lavoro!
Invia una cover