Lucy In The Sky With Diamonds (Intro) Tab uke di The Beatles

Tab ukulele senza accordi.

StampaAggiungi Tab al tuo album
Tablature / ChordsFont size: A- A A+

Non sai come leggere una Tab o un accordo? Dai un'occhiata a queste lezioni di uke:

# This way of playing it is similar to how it's played on guitar:

A|--------------7-----------7-----------------------7-----------5-4-----|
E|--------5-----------------------5-----------5----------------------5--|
C|--4-----------------7-----------------6-----------------5-------------|
G|----------------------------------------------------------------------|


# This way is simpler and only uses two strings:

A|--------0-----7-----------7-----0-----------0-----7-----------5-4--0--|
E|--0-----------------3-----------------2-----------------1-------------|
C|----------------------------------------------------------------------|
G|----------------------------------------------------------------------|


# If you have difficulties changing frets this way may be easier for you:

A|--------0-----7-----------7-----0-----------0-----7-----------5-4--0--|
E|--0-------------------------------------------------------------------|
C|--------------------------------------6-----------------5-------------|
G|--------------------0-------------------------------------------------|

 

Commenti Tab (2)
Devi essere connesso per partecipare alla discussione
oppure Registrati

 

piffjr avatar
flag for US(ISO2) (NYC)
Checks out. nice riff, but missing some of the flashier eighth-notes
01 Jun 2016
caitbeatles avatar
flag for US(ISO2) (WELLSVILLE)
This is amazingly well translated on to uke. All the versions sound really good.
14 May 2016
Info brano

Nessuna informazione su questo brano.