Arrival To Earth Tab uke di Steve Jablonsky

Tab ukulele senza accordi.

Vota la canzone!
StampaAggiungi Tab al tuo album

Tablature / Chords (Brano intero)

Font size: A- A A+

Artista: 
Album:  sconosciuto
Chiave: sconosciutoTablature (senza accordi)
A|---------------------------------------------------------------------------|
E|---3-----3-------------1-4----4-------3---3-----1--------4-----------------|
C|-------------3-----2-------------------------3-----3-2---------------------|
G|-----5-----5----3----------5-----5------5--------------5-----5-------------|

A|---------------------------------------------------------------------------|
E|---3-------------1-4----4-------------------3-------------------------3----|
C|-------3-----2----------------------3-2----------------3-2-----2-3-5-------|
G|-----5----3----------5-----5----3-------5-----3-5---3------5---------------|

A|------------------------------------------------------------------------------|
E|------3------6---------4---4------3--------------------------4--------------|
C|--------------------5-------------------------------------------------------|
G|---5----5-8----7---------5---5------5-12----8----10----8--7--5---5------------|

A|----------------------------------------------------------------------------|
E|---3------6---------4---4-------6-------------3-6----6----------------------|
C|-----------------5----------------------------------------------------------|
G|-----5-8----7---------5---5-------7--8--5---------5-----7--8--5-------------|

Tab uke di , 16 giu 2019

Commenti Tab (1)

Qualcosa da dire?
Condividi i tuoi schemi di pennata, accordi o consigli per suonare questa scheda!
oppure Registrati
Filtro per:
sandragardner838 avatar
The space between us feels electric. Can we close the distance and see where the sparks take us? f1nd me on sandragardner_mooo_com change _ to dot
10 Jul 2024
Commento

Top Tabs e accordiby Steve Jablonsky, non perdere queste canzoni!

Info brano: Arrival To Earth

Nessuna informazione su questo brano.

Hai fatto una cover di Arrival To Earth sul tuo Ukulele? Condividi il tuo lavoro!
Invia una cover