Grass Skirt Chase Tab uke di Spongebob Squarepants

Tab ukulele senza accordi.

8.8/10
StampaAggiungi Tab al tuo album

Tablature / Chords (Brano intero)

Font size: A- A A+

Album:  sconosciuto
Chiave: sconosciutoTablature (senza accordi)
A|----------------------------------------|
E|--1----4----7----4----1----4----1-------|
C|--2----5----8----5----2----5----2-------|
G|----------------------------------------|


A|----------------------------------------|
E|------------------------6-5-------------|
C|--2---4---5---4---2-4-5-----------------|
G|----------------------------------------|


A|----------------------------------------|
E|--5-6---3-6-5----5-3--------------------|
C|---------------5-----5----4----5-4------|
G|----------------------------------------|


A|----------------------------------------|
E|------------------------6-5-------------|
C|--2---4---5---4---2-4-5-----------------|
G|----------------------------------------|


A|----------------------------------------|
E|--5-6-3----6-5----5-3-------------------|
C|---------------5--------5-4-2---2-------|
G|----------------------------------------|


A|------------------------5---------------|
E|-------------------6------5-------------|
C|--0------4--5----------------------0----|
G|----------------------------------------|


A|----------------------------------------|
E|------------------------6-5-------------|
C|--2---4---5---4---2-4-5-----------------|
G|----------------------------------------|


A|----------------------------------------|
E|--5-6---3-6-5----5-3--------------------|
C|---------------5-----5----4----5-4------|
G|----------------------------------------|

A|----------------------------------------|
E|--1----4----7----4----1----2------------|
C|--2----5----8----5----2----2----2-------|
G|----------------------------------------|

⇢ Non sei soddisfatto di questa tablatura? Visualizza 1 altre versioni

Tab uke di , 05 apr 2024

Commenti Tab (2)

Qualcosa da dire?
Condividi i tuoi schemi di pennata, accordi o consigli per suonare questa scheda!
oppure Registrati
Filtro per:
oliwia_ukulele avatar
Help, I don't know how to read it
14 Apr 2024
Commento
NayaSayonara avatar
thank you, it's great!
06 Apr 2024
Commento

Top Tabs e accordiby Spongebob Squarepants, non perdere queste canzoni!

Info brano: Grass Skirt Chase

Nessuna informazione su questo brano.

Hai fatto una cover di Grass Skirt Chase sul tuo Ukulele? Condividi il tuo lavoro!
Invia una cover