World Painted Blood Tab uke di Slayer

Tab ukulele senza accordi.

8/10
StampaAggiungi Tab al tuo album

Tablature / Chords (Brano intero)

Font size: A- A A+

Artista: 
Album:  sconosciuto
Chiave: sconosciutoTablature (senza accordi)
Intro
A|---7--6-----------------------------------|
E|----------7--8--7-5-----------------------|
D|------------------------------------------|
G|------------------------------------------|
Verse
A|------------------------------------------------------------------|
E|---------------------------------------------------------44444444-|
C|-444-4-4-4-4-444-444-4-4-4-4-444-444-4-4-4-4-4-4------------------|
G|-------------------------------------------------8-8-8-8----------|
Chorus
A|------------------------------------------------------------------|
E|-333-3-333-3-333-----------------333-3-333-3-333-6666666655555555-|
C|-----------------666-6-666-6-666----------------------------------|
G|------------------------------------------------------------------|

A|-----------------------------------------|
E|---------------4433333333----------------|
C|-42222222444555----------55511111--------|
G|-----------------------------------------|

A|--78--------78---8----78-78--------8---233333-|
E|------000000-----0------0---------000000-----0I-I-1-|
D|----------------------------------------------------|
G|----------------------------------------------------|
solo backing
A|-2---2-2-----2-2-2------7778855--|
E|-0---0-0-----0-0-0---------------|
C|---------------------------------|
G|---------------------------------|

Tab uke di , 15 mar 2017

Commenti Tab (1)

Qualcosa da dire?
Condividi i tuoi schemi di pennata, accordi o consigli per suonare questa scheda!
oppure Registrati
Filtro per:
inezmartin715 avatar
There's an undeniable spark between us, and I can't wait to see where it leads. Let's explore one delicious possibility at a time. f1nd me on inezmartin_mooo_com change _ to dot
09 Jul 2024
Commento

Info brano: World Painted Blood

Nessuna informazione su questo brano.

Hai fatto una cover di World Painted Blood sul tuo Ukulele? Condividi il tuo lavoro!
Invia una cover