Raining Blood Tab uke di Slayer

Tab ukulele senza accordi.

9.7/10
StampaAggiungi Tab al tuo album

Tablature / Chords (Brano intero)

Font size: A- A A+

Artista: 
Anno:  1986
Difficoltà: 
5.25
(Intermedio)
Chiave: G#, FmTablature (senza accordi)
# Tuned A A,D# D#,G# G#,C# C# (instead of GCEA) 

C#|---------8-9-8----8-7----7-6-|
G#|-------7--------9------8-----| X2
D#|-0-0-0-----------------------|
A |-----------------------------|

C#|----------13-14-13-----13-12-----12-11-|
G#|-------12-----------14--------13-------| X2
D#|-0-0-0---------------------------------|
A |---------------------------------------|

# Or, if you don't have 14 frets

# Tuned GCEA (normal)

A|---------9-10-9-----9-8----8-7-|
E|-------8---------10------9-----| X2
C|-0-0-0-------------------------|
G|-------------------------------|

A|----------11-12-11-----10-9-----9-8-|
E|-------10-----------11-------10-----| X2
C|-0-0-0------------------------------|
G|------------------------------------|

⇢ Non sei soddisfatto di questa tablatura? Visualizza 3 altre versioni

Tab uke di , 20 mag 2016

Commenti Tab (0)

Ancora nessun commento :(
Hai bisogno di aiuto, vuoi condividere un consiglio o vuoi semplicemente parlare di questo brano? Inizia la discussione!

Qualcosa da dire?
Condividi i tuoi schemi di pennata, accordi o consigli per suonare questa scheda!
oppure Registrati

Info brano: Raining Blood

Nessuna informazione su questo brano.

Hai fatto una cover di Raining Blood sul tuo Ukulele? Condividi il tuo lavoro!
Invia una cover