Lavender Town Theme Tab uke di Pokemon

Tab ukulele senza accordi.

8.3/10
StampaAggiungi Tab al tuo album

Tablature / Chords (Canzone semplificata)

Font size: A- A A+

Artista: 
Album:  sconosciuto
Chiave: sconosciutoTablature (senza accordi)
A||-------------------|-------------------|-------------------|
E||-------------------|-------------------|-------------------|
C||-------------------|-------------------|-------------------|
G||-------------------|-------------------|-------------------|

-------------------|--------------------|--------------------|
-------------------|--3--------3--------|--0--------0--------|
-------------------|--------------------|--------------------|
-------------------|--------------------|--------------------|

----------------------|--------------------|--------------------|
--3----2----0---------|--------------------|--3--------3--------|
----------------------|--------------------|--------------------|
-----------------4----|--6--------6--------|--------------------|

--------------------|----------------------|--------------------|
--2--------2--------|-------3----2---------|--------------------|
--------------------|----------------------|--------------------|
--------------------|--4--------------4----|--5--------5--------|

--------------------|--------------------|------------7---------|
--3--------3--------|--------------------|--3----2--------------|
--------------------|--4--------4--------|----------------------|
--------------------|--------------------|-----------------4----|

--------------------|--------------------|--------------------|
--------------------|--3--------3--------|--2--------2--------|
--------------------|--------------------|--------------------|
--6--------6--------|--------------------|--------------------|

----------------------|--------------------|-------------------|
-------3----2---------|--------------------|-------------------|
----------------------|--------------------|-------------------|
--4--------------4----|--5--------5--------|-------------------|

-------------------|-------------------|-------------------|
-------------------|-------------------|-------------------|
-------------------|-------------------|-------------------|
-------------------|-------------------|-------------------|

--------------------|--------------------|----------------------|
--3--------3--------|--0--------0--------|--3----2----0---------|
--------------------|--------------------|----------------------|
--------------------|--------------------|-----------------4----|

--------------------|--------------------|--------------------|
--------------------|--3--------3--------|--2--------2--------|
--------------------|--------------------|--------------------|
--6--------6--------|--------------------|--------------------|

----------------------|--------------------|--------------------|
-------3----2---------|--------------------|--3--------3--------|
----------------------|--------------------|--------------------|
--4--------------4----|--5--------5--------|--------------------|

--------------------|------------7---------|--------------------|
--------------------|--3----2--------------|--------------------|
--4--------4--------|----------------------|--------------------|
--------------------|-----------------4----|--6--------6--------|

--------------------|--------------------|----------------------|
--3--------3--------|--2--------2--------|-------3----2---------|
--------------------|--------------------|----------------------|
--------------------|--------------------|--4--------------4----|

--------------------|-------------------|-------------------|
--------------------|-------------------|-------------------|
--------------------|-------------------|-------------------|
--5--------5--------|-------------------|-------------------|

-------------------|-------------------||
-------------------|-------------------||
-------------------|-------------------||
-------------------|-------------------||

⇢ Non sei soddisfatto di questa tablatura? Visualizza 1 altre versioni

Tab uke di , 24 nov 2011

Commenti Tab (2)

Qualcosa da dire?
Condividi i tuoi schemi di pennata, accordi o consigli per suonare questa scheda!
oppure Registrati
Filtro per:
SirSpookyChan avatar
flag for US(ISO2) (ogden)
spookyness as always
08 May 2020
Commento
TygaKitty avatar
flag for US(ISO2) (San Jose)
Hory shit my inner child weaboo is AWAKENING
07 Nov 2018
Commento

Info brano: Lavender Town Theme

Nessuna informazione su questo brano.

Hai fatto una cover di Lavender Town Theme sul tuo Ukulele? Condividi il tuo lavoro!
Invia una cover