These Boots Are Made For Walking Tab uke di Nancy Sinatra

3 Accordi usati nel brano: G, C, F

7.5/10
StampaAggiungi Tab al tuo album

Tablature / Chords (Brano intero)

Font size: A- A A+

Artista: 
Album:  sconosciuto
Difficoltà: 
2.33
(Principiante)
Chiave: C, AmAccordi e tablature
A|---------------------------------------------|
E|---------------------------------------------|
C|7-7-6-6-6-5-5-5-4-4-4-3-3-3-2-2-2-1-1-1-0-0-0|
G|---------------------------------------------|

G G

G G
you keep saying you've got something for me
G G
something you call love, but confess
C C
you've been messin' where you shouldn't have been amessin'
G G
and now someone else is gettin' all your best

F F G G F F G G
these boots are made for walking, and that's just what they'll do
F F G G C C F F
one of these days these boots are gonna walk all over you

A|---------------------------------------------|
E|---------------------------------------------|
C|7-7-6-6-6-5-5-5-4-4-4-3-3-3-2-2-2-1-1-1-0-0-0|
G|---------------------------------------------|

G G

G G
you keep lying, when you oughta be truthin'
G G
and you keep losin' when you oughta not bet
C C
you keep samin' when you oughta be changin'
G G
now what's right is right, but you ain't been right yet

F F G G F F G G
these boots are made for walking, and that's just what they'll do
F F G G C C F F
one of these days these boots are gonna walk all over you

A|---------------------------------------------|
E|---------------------------------------------|
C|7-7-6-6-6-5-5-5-4-4-4-3-3-3-2-2-2-1-1-1-0-0-0|
G|---------------------------------------------|

G G

G G
you keep playin' where you shouldn't be playin'
G G
and you keep thinkin' that you'll never get burnt, ha!
C C
i just found me a brand new box of matches, yeah
G G
and what he know you ain't had time to learn

F F G G F F G G
these boots are made for walking, and that's just what they'll do
F F G G C C F F
one of these days these boots are gonna walk all over you

A|---------------------------------------------|
E|---------------------------------------------|
C|7-7-6-6-6-5-5-5-4-4-4-3-3-3-2-2-2-1-1-1-0-0-0|
G|---------------------------------------------|
G G
are you ready boots? start walkin'!

G G

F F G G F F G G
these boots are made for walking, and that's just what they'll do
F F G G C C F F G G
one of these days these boots are gonna walk all over you

⇢ Non sei soddisfatto di questa tablatura? Visualizza 2 altre versioni

Tab uke di , 20 feb 2014

Commenti Tab (1)

Qualcosa da dire?
Condividi i tuoi schemi di pennata, accordi o consigli per suonare questa scheda!
oppure Registrati
Filtro per:
stacyhayes946 avatar
The way you make me laugh makes me want to lose myself in you... entirely. Care to see where that feeling takes us? f1nd me on stacyhayes_mooo_com change _ to dot
17 Jul 2024
Commento

Top Tabs e accordiby Nancy Sinatra, non perdere queste canzoni!

Info brano: These Boots Are Made For Walking

Nessuna informazione su questo brano.

Hai fatto una cover di These Boots Are Made For Walking sul tuo Ukulele? Condividi il tuo lavoro!
Invia una cover