Enter Sandman Tab uke di Metallica

Tab ukulele senza accordi.

8.9/10
StampaAggiungi Tab al tuo album

Tablature / Chords (Brano intero)

Font size: A- A A+

Artista: 
Album:  sconosciuto
Chiave: sconosciutoTablature (senza accordi)
/ - slide
~ - vibrato

A|-------10-----------|
E|-0__------------12--|
C|----------10-9------|x12
G|-----9--------------|

A|-2-------------/7--|
E|-0-0-0-0-0-0-0-----|
C|-------------------|
G|-------------------|

A|---------------/7--|
E|-0-0-0-0-0-0-0-----|
C|-------------------|х3
G|-------------------|

A|-----/7---------3--|
E|-0-0----6-0-0-0-1--|
C|-------------------|х4
G|-------------------|

A|-----/7---------3--|
E|-0-0----6-5-0-0-1--|
C|-------------------|х7
G|-------------------|

A|-----/7---------2__|
E|-0-0----6-5-0-0-0__|
C|-------------------|
G|-------------------|

A|-2-/7--------2__2-/7--------2__2-/7--------5__--4---4-5-4-2__|
E|-0----6-5~~0-0__0----6-5~~0-0__0----6-5~~0-3__0-2-0-2-3-2-0__|
C|-------------------------------------------------------------|x2
G|-------------------------------------------------------------|

⇢ Non sei soddisfatto di questa tablatura? Visualizza 7 altre versioni

Tab uke di , 04 mag 2018

Commenti Tab (1)

Qualcosa da dire?
Condividi i tuoi schemi di pennata, accordi o consigli per suonare questa scheda!
oppure Registrati
Filtro per:
Igorever21 avatar
flag for RU(ISO2) (Tver)
So good!
22 Aug 2018
Commento

Info brano: Enter Sandman

Nessuna informazione su questo brano.

Hai fatto una cover di Enter Sandman sul tuo Ukulele? Condividi il tuo lavoro!
Invia una cover