En El Muelle De San Blas Tab uke di Mana

4 Accordi usati nel brano: Em, A, D, G

9.1/10
StampaAggiungi Tab al tuo album

Tablature / Chords (Brano intero)

Font size: A- A A+

Artista: 
Anno:  1997
Difficoltà: 
3.5
(Intermedio)
Chiave: D, BmAccordi e tablature
Em Em
A|-----------------2----------------------|
E|----------3------------------3----------|
C|-----4---------4--------4---------4-----|
G|-0--------------------------------------|

A A
A|-----------------0----------------------|
E|----------0------------------0----------|
C|-----1---------1--------1---------1-----|
G|-2--------------------------------------|

D D
A|-----------------0----------------------|
E|----------3------------------3----------|
C|-----3---------3--------3---------3-----|
G|-3--------------------------------------|

G G
A|-----------------2----------------------|
E|----------3------------------3----------|
C|-----2---------2--------2---------2-----|
G|-0--------------------------------------|




Em Em A A D D G G
Ella Despidio a su amor el partio en un barco en el muelle de San Blas
Em Em A A D D G G
El juro y que volveria y empapada en llanto ella juro que esperaria
Em Em A A D D G G
Miles de lunas pasaron y siempre ella estaba en el muelle esperando
Em Em A A D D G G
Muchas tardes se anidaron se anidaron en su pelo y en sus labios.
Em Em A A D D G G
Llevaba el mismo vestido y por si el volviera no se fuera a equivocar
Em Em A A D D G G
Los cangrejos le mordian sus ropajes, su tristeza y su ilusion
Em Em A A D D G G
Y el tiempo se escurrio y sus ojos se le llenaron de amaneceres
Em Em A A D D G G
Y del mar se enamoro y su cuerpo se enrraizo en el muelle.


D D A A D D A A
Coro Sola, sola, en el olvido. Sola, sola, con su espiritu
D D A A G G A A D D
Sola, sola, con su amor. Sola, en el muelle de San Blas.


Em Em A A D D G G
Su cabello se blanqueo pero ningun barco a su amor le devolvia
Em Em A A D D G G
Y en el pueblo le decian, le decian la loca del muelle de San Blas
Em Em A A D D G G
Y una tarde de abril la trataron transladar al manicomio
Em Em A A D D G G
Nadie la pudo arrancar y del mar nunca jamas la separaron.


Coro

D D A A D D A A
Sola. sola en el olvido. Sola, sola con su espiritu.
D D A A G G A A
Sola, sola con el sol y el mar. Sola
D D A A D D A A
Sola, sola en el olvido, Sola, sola con su espiritu.

D D A A G G A A D D
Sola, sola con su amor el mar. Sola, en el muelle de San Blas.
D D G G
Se quedo, se quedo, sola, sola.
D D G G
Se quedo, se quedo, con el sol y con el mar
D D
Se quedo ahi, se quedo hasta el fin.
G G D D
Se quedo ahi, se quedo, en el muelle de San Blas
G G
Sola, Sola se quedo.

Tab uke di , 14 lug 2013

Commenti Tab (2)

Qualcosa da dire?
Condividi i tuoi schemi di pennata, accordi o consigli per suonare questa scheda!
oppure Registrati
Filtro per:
BethWood avatar
DUUDUUD
08 Apr 2020
Schemi di pennata
fcurrao avatar
mobile flag for AR(ISO2) (Haedo)
lotqp
10 Dec 2018
Commento

Top Tabs e accordiby Mana, non perdere queste canzoni!

Info brano: En El Muelle De San Blas

Nessuna informazione su questo brano.

Hai fatto una cover di En El Muelle De San Blas sul tuo Ukulele? Condividi il tuo lavoro!
Invia una cover