Dracula Mountain Tab uke di Lightning Bolt

Tab ukulele senza accordi.

Vota la canzone!
StampaAggiungi Tab al tuo album

Tablature / Chords (

Font size: A- A A+

Artista: 
Anno:  2003
Chiave: sconosciutoTablature (senza accordi)
(0:18)
A -----------4-4-5-5-6-------------4-4-5-5---|
E -6---6-6-6-------------6---6-6-6---------4-| x2
C -------------------------------------------|
G -------------------------------------------|

(0:24)
A -9---------4-4-5-5-6-----9-------4-4-5-5---
E ---6-6-6-6-------------6---6-6-6---------4-
C -------------------------------------------
G -------------------------------------------

A -------9-9-4-4-5-5-6---------9-9-4-4-5-5---|
E -6-6-------------------6-6---------------4-|
C -------------------------------------------
G -------------------------------------------|

(0:54)
A -------------------
E -6-666-666-666-666-
C -------------------
G -------------------

(0:59)
A-----------6-6-7-7-8-------------6-6-7-7---
E-8---8-8-8-------------8---8-8-8---------6- x4
D-------------------------------------------
G-------------------------------------------

(1:14)
A-11---------6-6-7-7-8-----11-------6-6-7-7---|
E----8-8-8-8-------------8----8-8-8---------6-|
C---------------------------------------------|
G---------------------------------------------|

A-------11-11-6-6-7-7-8---------11-11-6-6-7-7---|
E-8-8---------------------8-8-----------------6-|
C-----------------------------------------------|
G-----------------------------------------------|

(1:45)
A-------------------------------------------------------------------
E-6-666-666-666-666-666-666-666-666-666-666-666-666-666-666-77777777 4x
C-------------------------------------------------------------------
G-------------------------------------------------------------------

A----------------------------------------
E-6--6-6-6--77777777---6--6-6-6--77777777-- 4x
C----------------------------------------
G----------------------------------------

A--------------------
E-6-66-7777-6-66-7777 4x
C--------------------
G--------------------

(2:50)
A----------------------------------------------|
E----------------------------------------------
C-------------------5--------------------------|
G-6--6--6--8--9--9-----6--6--6--8--9--9--9--9--

A----------------------------------------------|
E----------------------------------------------
C-------------------5--------------------------|
G-6--6--6--8--9--9-----6--6--6--9--7--7--7--7--|

A----------------------------------------------|
E----------------------------------------------
C-------------------5--------------6--6--6--6--|
G-6--6--6--8--9--9-----6--6--6--9--------------|

A----------------------------------------------|
E----------------------------------------------
C-------------------6--6-----------------------|
G-6--6--6--8--9--9--------9--8--7--6-----------|

(3:19)
A--------------------------------|
E-------------5------------------|
G-6-6-6-8-9-9----6-6-6-8-9-9-9-9-|
C--------------------------------|

A--------------------------------|
E-------------5------------------|
G-6-6-6-8-9-9----6-6-6-9-7-7-7-7-|
C--------------------------------|

A--------------------------------|
D-------------5----------6-6-6-6-|
G-6-6-6-8-9-9----6-6-6-9---------|
C--------------------------------|

A--------------------------------|
D-------------6-6----------------|
G-6-6-6-8-9-9-----9-8-7-6--------|
C--------------------------------|

Tab uke di , 12 lug 2014

Commenti Tab (0)

Ancora nessun commento :(
Hai bisogno di aiuto, vuoi condividere un consiglio o vuoi semplicemente parlare di questo brano? Inizia la discussione!

Qualcosa da dire?
Condividi i tuoi schemi di pennata, accordi o consigli per suonare questa scheda!
oppure Registrati

Top Tabs e accordiby Lightning Bolt, non perdere queste canzoni!

Info brano: Dracula Mountain

Nessuna informazione su questo brano.

Hai fatto una cover di Dracula Mountain sul tuo Ukulele? Condividi il tuo lavoro!
Invia una cover