Fear Of The Dark Tab uke di Iron Maiden

0 Accordi usati nel brano:

6/10
StampaAggiungi Tab al tuo album

Guarda questi accordi per il Baritono

Trasponi accordi:
Diagrammi di accordi:
Fissa gli accordi in alto quando scorri

Tablature / Chords (Brano intero)

Font size: A- A A+

Artista: 
Anno:  1998
Chiave: sconosciutoAccordi
Intro
# (this and one below x2)
A: 5--5--------5--5--7--7--8--8--7--7--5--5--7--7--3--3------
E: ------5--5--------------------------------------------3--3
C: ----------------------------------------------------------
G: ----------------------------------------------------------

A: --3--3--5--5--7--7--5--5--3--3--7--3--
E: --------------------------------------
C: --------------------------------------
G: --------------------------------------
# only once now
A: ------------------2--2--3--3--2--2--0--0--2--2------------
E: 5--5--------5--5--------------------------------3--3------
C: ------4--4--------------------------------------------2--2
G: ----------------------------------------------------------

A: --------------2--2--0--0--------2-----------------------2
E: --3--3--5--5--------------3--3-----3--5--5--------5--5---
C: --------------------------------------------4--4---------
G: ---------------------------------------------------------

A: --2--3--3--2--2--0--0--2--0------------------------------
E: -----------------------------1--1--------1--1--3--3--5--5
C: -----------------------------------0--0------------------
G: ---------------------------------------------------------

A: --------------0-----
E: --3--3--1--1-----1--
C: --------------------
G: --------------------

Pre-verse

A: ---------------------------0-----------------------------0
E: 5--------0--1--3--1--0--------------0--1--3--1--0---------
C: ---2--2-----------------0-----2--2-----------------0--2---
G: ----------------------------------------------------------

A: -----------------------------0---------------------------
E: -----0--1--1--3--1--0--------------0--1--1--3--1--0------
C: --2--------------------0--0-----2--------------------0--0
G: ---------------------------------------------------------

A: -----------1--1-----------------0------------------------
E: --3-----3--------------1--------------0--1--1--3--1--1--0
C: -----0-----------0--0-----2--2-----2---------------------
G: ---------------------------------------------------------

A: -----
E: -----
C: --0--
G: -----

Verse

A: ---0-----0-----0-----0--1-----1-----1-----1---------------
E: ---------------------------1-----1-----1-----1-----3-----3
C: 2-----2-----2-----2-----------------------------0-----0---
G: ----------------------------------------------------------

A: --------------1-----1------------------------------------
E: -----3-----3-----1-----1-----3-----3-----3-----3-----3---
C: --0-----0-----------------0-----0-----0-----0-----0-----0
G: ---------------------------------------------------------

A: --------------------------------0-----0-----0-----0--1---
E: --3--1-----1-----3-----3--------------------------------1
C: --------0-----0-----2-----2--2-----2-----2-----2---------
G: ---------------------------------------------------------

A: --1-----1-----1------------------------------------------
E: -----1-----1-----1-----3-----3-----3-----3-----3-----3---
C: --------------------0-----0-----0-----0-----0-----0-----0
G: ---------------------------------------------------------

A: -----------
E: --3-----3--
C: -----0-----
G: -----------

Chorus

A: ---------------------------------------------------0-----0
E: 6-----6-----6-----6--------3-----3-----3-----3------------
C: ---5-----5-----5-----5--0-----0-----0-----0-----2-----2---
G: ----------------------------------------------------------

A: -----0-----0--------------------------1-----1-----1-----1
E: -----------------3-----3-----3-----3-----1-----1-----1---
C: --2-----2-----0-----0-----0-----0------------------------
G: ---------------------------------------------------------

A: --------------------------------0-----0-----0-----0-----0
E: --1--1-----1-----3-----3---------------------------------
C: --------0-----0-----2-----2--2-----2-----2-----2-----2---
G: ---------------------------------------------------------

A: -----0-----0-----0-----0-----0-----0-----0-----0-----0---
E: ---------------------------------------------------------
C: --2-----2-----2-----2-----2-----2-----2-----2-----2-----2
G: ---------------------------------------------------------

A: --------0--0--------------------0--0-----------------0--0
E: --------------3--3--5--5--------------3--3--5------------
C: --2--2--------------------2--2-----------------2--2------
G: ---------------------------------------------------------

A: --------------------0--0-----------------0--0------------
E: --3--3--5--5--------------3--3--5--------------3--3--5--5
C: --------------2--2-----------------2--2------------------
G: ---------------------------------------------------------

A: --------0--0-----------------0--0------------------------
E: --------------3--3--5--------------------0--0--1--1--3--3
C: --2--2-----------------2--2--------2--2------------------
G: ---------------------------------------------------------

A: -----------------------------------0--
E: --1--1--0-----1--1--3--3--1--0--------
C: -----------2--------------------2--2--
G: --------------------------------------

Interlude:

A: ------------------------1--1--0---------------------------
E: ---------------------------------3--5--6-----0--1--0--1--0
C: 4--5--4--5--4--2--2--0--------------------2---------------
G: ----------------------------------------------------------

A: -----------1--1--0-----------0-----0--------------------0
E: --------------------3--------------------0--1--3--1--0---
C: --2--2--0--------------0--2-----2-----2------------------
G: ---------------------------------------------------------

A: --------------------------0--1--0--0-----0---------------
E: -----0--1--3--1--0-----------------------------0--1--3--1
C: --2-----------------2--0--------------2-----2------------
G: ---------------------------------------------------------

A: -----0-----------------------------0--0--1--
E: --0--------0--1--3--1--0--0-----------------
C: --------2--------------------2--0-----------
G: --------------------------------------------

Outro

A: ------------------------------1--------------0------------
E: 5-----0--1--3--1--0-----3--------------1-----------0--1--3
C: ---2-----------------0-----0-----0--0-----2-----2---------
G: ----------------------------------------------------------

A: --------------0-----0-----0-----0--1-----1-----1-----1---
E: --1--0--------------------------------1-----1-----1-----1
C: --------0--2-----2-----2-----2---------------------------
G: ---------------------------------------------------------

A: -----------------------------------------------------0---
E: -----3-----3-----3-----3--1-----1-----3-----3------------
C: --0-----0-----0-----0--------0-----0-----2-----2--2-----2
G: ---------------------------------------------------------

A: --0-----
E: --------
C: -----2--
G: --------

⇢ Non sei soddisfatto di questa tablatura? Visualizza 3 altre versioni

Tab uke di , 14 mag 2015

Commenti Tab (0)

Ancora nessun commento :(
Hai bisogno di aiuto, vuoi condividere un consiglio o vuoi semplicemente parlare di questo brano? Inizia la discussione!

Qualcosa da dire?
Condividi i tuoi schemi di pennata, accordi o consigli per suonare questa scheda!
oppure Registrati

Top Tabs e accordiby Iron Maiden, non perdere queste canzoni!

Info brano: Fear Of The Dark

Nessuna informazione su questo brano.

Hai fatto una cover di Fear Of The Dark sul tuo Ukulele? Condividi il tuo lavoro!
Invia una cover