Demons In The Dirt Tab uke di Hellyeah

Tab ukulele senza accordi.

10/10
StampaAggiungi Tab al tuo album

Tablature / Chords (Brano intero)

Font size: A- A A+

Artista: 
Album:  sconosciuto
Chiave: sconosciutoTablature (senza accordi)
(Intro)                        
A|------------------------------------------------------|
E|------------------------------------------------------|
C|--0-0-0-0---0-0-0-0---0-0-0-0---0-0-0-0---0-0---0-0---|x3
G|------------------------------------------------------|

A|-----------------------------------|
E|-----------------------------------|
C|--0-0-0-0---0-0-0-0---0-0-0-0-5b---|
G|-----------------------------------|

(Chorus)
A|-----------------------------------------------------------------|
E|-----------------------------------------------------------------|
C|-0-6-6-0-6\---0-6-6-0-6-0-9---0-6-6-0-6\---0-6-6-0-6-0-3-3-3-3---|x2
G|-0-6-6-0-6\---0-6-6-0-6-0-9---0-6-6-0-6\---0-6-6-0-6-0-----------|

Tab uke di , 26 lug 2018

Commenti Tab (0)

Ancora nessun commento :(
Hai bisogno di aiuto, vuoi condividere un consiglio o vuoi semplicemente parlare di questo brano? Inizia la discussione!

Qualcosa da dire?
Condividi i tuoi schemi di pennata, accordi o consigli per suonare questa scheda!
oppure Registrati

Top Tabs e accordiby Hellyeah, non perdere queste canzoni!

Info brano: Demons In The Dirt

Nessuna informazione su questo brano.

Hai fatto una cover di Demons In The Dirt sul tuo Ukulele? Condividi il tuo lavoro!
Invia una cover