Harry Potter's Hedwig Theme Tab uke di Harry Potter

Tab ukulele senza accordi.

9.3/10
StampaAggiungi Tab al tuo album

Tablature / Chords (Brano intero)

Font size: A- A A+

Artista: 
Anno:  2012
Chiave: sconosciutoTablature (senza accordi)
A---0-3-2-0--7-5--2---0-3-2---0------
E-0-------------------------3---0---
C-----------------------------------
G-----------------------------------
A---0--3-2-0--7--10-9-8---8-7-6--6-3
E-0---------------------9------4----
C-----------------------------------
G-----------------------------------
A-3-7--3-7--3-8-7-6--6-7-3-0---3-0-
E----------------------------0-----
C----------------------------------
G----------------------------------
A-3-7--3-7--3-10-9-8--5--8-7-6---3-0
E------------------------------0----
C-----------------------------------
G-----------------------------------

Tab uke di , 31 mag 2011

Commenti Tab (10)

Qualcosa da dire?
Condividi i tuoi schemi di pennata, accordi o consigli per suonare questa scheda!
oppure Registrati
Filtro per:
nolasinclair avatar
how do u read this? can someone help meee
29 Aug 2019
Commento
Ilmh avatar
flag for US(ISO2) (Eagle Mountain)
This is perfect! So amazing!
14 Jun 2019
Commento
emmawolters avatar
I love it so much! very very easy to play!
15 Jan 2019
Commento
Tinkle11543 avatar
flag for US(ISO2) (Ft Collins)
YAAAS
11 Jun 2018
Commento
PasswordPassword1 avatar
......................
12 May 2018
Commento
andypflueger avatar
mobile flag for US(ISO2) (Crestwood)
this is awesome!
29 Dec 2017
Commento
koikip avatar
yesss
04 Jan 2017
Commento
Melanie88 avatar
flag for FR(ISO2) (Fosses)
Exactement ce que je cherchais, merci !
27 Dec 2016
Commento
fridahedwig avatar
flag for DK(ISO2) (aarhus)
oh wow, lovely!
08 Aug 2011
Commento
aaron3214 avatar
flag for US(ISO2) (Gonzales)
nice tab man and fun to play too
08 Jun 2011
Commento

Top Tabs e accordiby Harry Potter, non perdere queste canzoni!

Info brano: Harry Potter's Hedwig Theme

Nessuna informazione su questo brano.

Hai fatto una cover di Harry Potter's Hedwig Theme sul tuo Ukulele? Condividi il tuo lavoro!
Invia una cover