Ways To Go Tab uke di Grouplove

2 Accordi usati nel brano: G, Em

Vota la canzone!
StampaAggiungi Tab al tuo album

Tablature / Chords (Brano intero)

Font size: A- A A+

Artista: 
Anno:  2013
Difficoltà: 
4
(Intermedio)
Chiave: C, D, G, Am, Em, BmAccordi e tablature
A|--3-2------3---2------------------------|
E|------3---------------------------------|
C|----------------------------------------|
G|----------------------------------------|
I didn't ask for

G G
that

A|--3-2------3---2------------------------|
E|------3---------------------------------|
C|----------------------------------------|
G|----------------------------------------|
you give me heart a-

G G
-ttacks

A|--3-2------3---2------------------------|
E|------3---------------------------------|
C|----------------------------------------|
G|----------------------------------------|
I didn't want to

Em Em
care

A|--3-2------3---2------------------------|
E|------3---------------------------------|
C|----------------------------------------|
G|----------------------------------------|
and then I saw you

G G
there



A|--3-2------3---2------------------------|
E|------3---------------------------------|
C|----------------------------------------|
G|----------------------------------------|
been working like a

G G
dog

A|--3-2------3---2------------------------|
E|------3---------------------------------|
C|----------------------------------------|
G|----------------------------------------|
I turn all my

G G
off

A|--3-2------3---2------------------------|
E|------3---------------------------------|
C|----------------------------------------|
G|----------------------------------------|
I didn't know my

Em Em
name

A|--3-2------3---2------------------------|
E|------3---------------------------------|
C|----------------------------------------|
G|----------------------------------------|
I didn't know my

G G
name

⇢ Non sei soddisfatto di questa tablatura? Visualizza 2 altre versioni

Tab uke di , 07 feb 2015

Commenti Tab (0)

Ancora nessun commento :(
Hai bisogno di aiuto, vuoi condividere un consiglio o vuoi semplicemente parlare di questo brano? Inizia la discussione!

Qualcosa da dire?
Condividi i tuoi schemi di pennata, accordi o consigli per suonare questa scheda!
oppure Registrati

Info brano: Ways To Go

Nessuna informazione su questo brano.

Hai fatto una cover di Ways To Go sul tuo Ukulele? Condividi il tuo lavoro!
Invia una cover