Fur Elise Tab uke di Beethoven, Ludwig Van

Tab ukulele senza accordi.

9.4/10
StampaAggiungi Tab al tuo album

Tablature / Chords (Canzone semplificata)

Font size: A- A A+

Anno:  2013
Chiave: sconosciutoTablature (senza accordi)
A|-7-6-7-6-7-2-5-3-0---0-2-----2-3--7-6-7-6-7-2-5-3-0---0-2--3-2-0-|
E|-----------------0--0--0-0-4---0-0----------------0--0--0-0----0-|
C|-----------------0-0---2-------0------------------0-0---2------0-|
G|-----------------2-----1-------2------------------2-----1------2-|




A|-2-3-5-7--8-7-5--7-5-3--5-3-2----7-7-7-6-7-6-7-2-5-3-0---0-2----2|
E|-------0------3------0-0----0-0-0-0-0----------------0--0--0-0-4-|
C|-------0------5-5----0------2------------------------0-0---2-----|
G|-------0-0----0------2------1------------------------2-----1-----|




A|-3--7-6-7-6-7-2-5-3-0---0-2--3-2-0--
E|-0-0----------------0--0--0-0----0-|
C|-0------------------0-0---2------0-|
G|-2------------------2-----1------2-|

⇢ Non sei soddisfatto di questa tablatura? Visualizza 18 altre versioni

Tab uke di , 17 feb 2014

Commenti Tab (1)

Qualcosa da dire?
Condividi i tuoi schemi di pennata, accordi o consigli per suonare questa scheda!
oppure Registrati
Filtro per:
kalyhol avatar
This is the most beautiful tab I've ever seen. I'm literally playing this on the brink of tears.
12 Jul 2017
Commento

Top Tabs e accordiby Beethoven, Ludwig Van, non perdere queste canzoni!

Info brano: Fur Elise

Nessuna informazione su questo brano.

Hai fatto una cover di Fur Elise sul tuo Ukulele? Condividi il tuo lavoro!
Invia una cover