Alice's Restaurant Tab uke di Arlo Guthrie

Tab ukulele senza accordi.

StampaAggiungi Tab al tuo album
Tablature / ChordsFont size: A- A A+

Non sai come leggere una Tab o un accordo? Dai un'occhiata a queste lezioni di uke:

-2---0---2------------2-----1--0----------0------0--------|
-3-----------0--0--------0---------0--5-------3------0----|
---------2---0--------2-----------------------------------|
-----5-------------0--------------------------------------|
SS
----------5--------------------2--0--2----------2-----1-0-|
-------0---------3---0---------3--------0--0-------0------|
-1--2---------------------0----------2--0-------2---------|
-------------5--------------------5----------0------------|
SS
------0----0------------5-----5-----2--0--1--2------------|
-0--5----3----0---------2--------0--3-----------0--0------|
------------------1--2-----------------------2--0---------|
---------------------------5-----------5--6----------0----|

-2-----2------------------------2-----2--3--3----3---5--3-5-|
----0-----0--0----0--3---0----------------------------------|
-2--------0-----0------------5-----------------6---6--------|
-----------------------------2-----2------------------------|
SS
-----------2-----1--0--------0----0-------------5-----------|
-0--0---------0---------0-5-----3----0--------0-----3-0-----|
-0---------2----------------------------1--2-------------0--|
-------0------------------------------------------5---------|

 

Commenti Tab (1)
Devi essere connesso per partecipare alla discussione
oppure Registrati

 

kathysuke99 avatar
flag for US(ISO2) (Broadview Hts)
I registered, total waste of my time. I need to see the words with the chord signature above. I'm a beginner. Tell me where to look for a readable copy of the uke chords for Alice's Restaurant.
16 Nov 2018
Info brano

Nessuna informazione su questo brano.