505 Tab uke di Arctic Monkeys

Tab ukulele senza accordi.

6.6/10
StampaAggiungi Tab al tuo album

Tablature / Chords (Brano intero)

Font size: A- A A+

Artista: 
Anno:  2007
Chiave: sconosciutoTablature (senza accordi)
S                      
A|----------------------------------------------------------9-----|
E|-----------------5---------------------------------------------|
C|----------------------------------------------------------7----|
G|--9---7---5---4-----4--5---5-5-5-5---4-4444-9---9-9-9-9---9----|
S
A|-------------------------------------------------------------|
E|----------------5--------------------------------------------|
C|-------------------------------------------------------------|
G|----9--7--5--4-----4--5--5-5-5-5--4--4-4-4-4--9--9-9-9-9-----| ( S
A|-------------------------------------------------------------|
E|-----------------5-------------------------------------------|
C|-------------------------------------------------------------|
G|--9---7---5---4-----4--5---5-5-5-5---4-4444-9---9-9-9-9-----| S
A|-----------------------------------------------9--------------|
E|-----------------5-------------------------------------------|
C|-----------------------------------------------7-------------|
G|--9---7---5---4-----4--5---5-5-5-5---4-4444-9--9-------------|

⇢ Non sei soddisfatto di questa tablatura? Visualizza 5 altre versioni

Tab uke di , 18 ago 2012

Commenti Tab (0)

Ancora nessun commento :(
Hai bisogno di aiuto, vuoi condividere un consiglio o vuoi semplicemente parlare di questo brano? Inizia la discussione!

Qualcosa da dire?
Condividi i tuoi schemi di pennata, accordi o consigli per suonare questa scheda!
oppure Registrati

Top Tabs e accordiby Arctic Monkeys, non perdere queste canzoni!

Info brano: 505

Nessuna informazione su questo brano.

Hai fatto una cover di 505 sul tuo Ukulele? Condividi il tuo lavoro!
Invia una cover