Animal Crossing Theme Tab uke di Animal Crossing

Tab ukulele senza accordi.

8.5/10
StampaAggiungi Tab al tuo album

Tablature / Chords (Brano intero)

Font size: A- A A+

Artista: 
Album:  sconosciuto
Chiave: sconosciutoTablature (senza accordi)
A|-----------5-3----2-0-----------0-------|
E|-3---0-3-----------------3-1------3-----|
C|------------------------------------0---|
G|----------------------------------------|



A|---------0---3----7--8---8-7-10-5-3-7---|
E|-----------3----------------------------|
C|-2-4-5----------------------------------|
G|----------------------------------------|



A|-2--2-3-2-0------3----------------------|
E|------------3--3-------------------------|
C|----------------------------------------|
G|----------------------------------------|

Tab uke di , 13 ott 2015

Commenti Tab (4)

Qualcosa da dire?
Condividi i tuoi schemi di pennata, accordi o consigli per suonare questa scheda!
oppure Registrati
Filtro per:
bernicecarter691 avatar
The air crackles with anticipation whenever you're near. I wonder what would happen if we closed the distance a little, and explored the possibilities with a playful touch that promises more for later? f1nd me on bernicecarter_mooo_com change _ to dot
06 Jul 2024
Commento
ahnika avatar
flag for CA(ISO2) (Vancouver)
this is Animal Crossing City Folk
20 Apr 2020
Commento
zylhanie avatar
mobile flag for US(ISO2) (pinellas park)
which animal crossing is this for?
17 Mar 2020
Domanda
gabrlei avatar
Really easy to play! thank you
05 Oct 2018
Commento

Top Tabs e accordiby Animal Crossing, non perdere queste canzoni!

Info brano: Animal Crossing Theme

Nessuna informazione su questo brano.

Hai fatto una cover di Animal Crossing Theme sul tuo Ukulele? Condividi il tuo lavoro!
Invia una cover