Für Elise Tab par Ludwig Van Beethoven

Tablature Ukulélé sans accords.

Ajouter cette tab à votre SongBook
Tablature / ChordsFont size: A- A A+

Vous ne savez pas comment lire une tablature ou un accord ?
Ne manquez pas nos cours:

Comment lire une tablature pour ukulélé
Comment lire un accord

# perfect to show off a little


A|-7-6-7-6-7-2-5-3-0------0-2------2-3----|
E|----------------------0------0-4------0-|
C|--------------------0-------------------|
G|----------------------------------------|


A|-7-6-7-6-7-2-5-3-0------0-2-----3-2-0-|
E|----------------------0------0--------|
C|--------------------0-----------------|
G|--------------------------------------|


A|-2-3-5-7-----8-7-5-----7-5-3-----5-3-2-|
E|------------------------------0--------|
C|----------7*---------5-----------------|
G|---------------------------------------|


A|-7-6-7-6-7-2-5-3-0------0-2--------2--3----|
E|----------------------0------0--4--------0-|
C|--------------------0----------------------|
G|-------------------------------------------|


A|-7--6--7--6--7--2--5--3--0--------0--2-------3---2---0-|
E|-------------------------------0---------0-------------|
C|----------------------------0--------------------------|
G|-------------------------------------------------------|

# *you can also play the open G G string*

 

Commentaires (1)
Vous devez être connecté pour participer à la discussion
ou Inscription

 

uk_gaz avatar
awesome tabs
30 Apr 2019
A propos de cette chanson

Pas d'information sur cette chanson.