House Of The Rising Sun (Intro) Tabulatur von The Animals

Ukulele Tabs ohne Akkorde.

8.6/10
druckenTab ins SongBook hinzufügen

Tablature / Chords (Intro)

Font size: A- A A+

Künstler: 
Jahr:  1966
Key: unbekanntTabulaturen (ohne Akkorde)
a----0-------3-------0-------0---
e---0-0-----0-0-----2-2-----1-1--
g--0---0---0---0---2---2---0---0-
c-2-------0-------2-------2------

a----0-------2-------0-------2---
e---0-0-----0-0-----0-0-----0-0--
g--0---0---2---2---0---0---2---2-
c-2-------1-------2-------1------

a-0----2-3---7-5-0-0----12---12-12-10---7-5-7----12---
e-----------------------------------------------------

a-12-12-10-7-5-0-0----0-0-0---0------2-0-
e-------------------------------4-0------

⇢ Nicht zufrieden mit dieser Tabulatur? 9 andere Version(en) anzeigen

Tabulatur von , 09 Okt 2010

Tab Kommentare (0)

Noch kein Kommentar vorhanden :(
Brauchen Sie Hilfe, haben Sie einen Tipp zu teilen, oder wollen einfach nur über dieses Lied sprechen? Starte die Diskussion!

Kommentieren
Teilen Sie Ihre Strumming-Muster, Akkorde oder Tipps zum Spielen dieser Registerkarte mit!

Top Tabs & Akkorde von The Animals, verpassen Sie diese Songs nicht!

Über dieses Lied: House Of The Rising Sun

Keine Informationen über dieses Lied.

Haben Sie House Of The Rising Sun auf Ihrer Ukulele gecovert? Teilen Sie Ihr Werk!
Cover abgeben