Devil Like Me Tabulatur von Rainbow Kitten Surprise

Ukulele Tabs ohne Akkorde.

druckenTab ins SongBook hinzufügen
Tablature / ChordsFont size: A- A A+

Sie wissen nicht wie man einen Tab oder Akkorde liest ?
Schauen Sie sich diesen uke Unterricht an:

Ukulelen-Unterricht

A|---2---2---9---2---9---2---9---0-----------9-------9-------7---5-----------|
E|-----------------------------------2---2-------2-------2-------------------|
C|---------------------------------------------------------------------------|
G|---------------------------------------------------------------------------|

A|-----------7-------7---7-/-9-\-7--------------7-------7---7-/-9-\-7---5----|
E|---5---5-------5----------------------5---5-------5------------------------|
D|---------------------------------------------------------------------------|
G|---------------------------------------------------------------------------|

# Repeat.

 

Tab Kommentare (1)
Sie müssen angemeldet sein, um an der Diskussion teilnehmen zu können
oder Beitreten

 

ameliacorwin avatar
flag for US(ISO2) (Portland)
Can someone post the actual chords? This does nothing for me, no matter how many times I try I can't read tabs like this.
20 May 2018
Über dieses Lied

Keine Informationen über dieses Lied.