Cheia De Manias Tabulatur von Raça Negra

2 Im Lied verwendete Ukulelengriffe: F, Gm

Tab ins SongBook hinzufügen
Tablature / ChordsFont size: A- A A+

Sie wissen nicht wie man einen Tab oder Akkorde liest ?
Schauen Sie sich diesen uke Unterricht an:

Ukulelen-Unterricht

Tom: F F
Intro: (Gm Gm F F Gm Gm F F )

# [Solo]

A|----------------------------------------------------
E|-6-6-5-3-6-6-6-5-3-6-5-3-5-3-3-----------------3----
C|----------------------------5-5-2-5-2-2-2-5-2-5-----
G|----------------------------------------------------


A|-------------------5-5-3-3--------3--------5-2-5----
E|-6-6-5-3-6--6-6-5-3-----6-5-5-5--5-5-5-5--5---------
C|----------------------------------------------------
G|----------------------------------------------------


Gm Gm
Cheia de manias
F F
Toda dengosa
Gm Gm
Menina bonita
F F
Sabe que é gostosa
Gm Gm
Com esse seu jeito
F F
Faz o que quer de mim
Gm Gm
Domina o meu coração
F F
Eu fico sem saber o que fazer

Quero te deixr
Gm Gm F F
Você não quer, não quer

# [Refrão]
Gm Gm
Então me ajude a segurar
F F
Essa barra que é gostar de você
Gm Gm
Então me ajude a segurar
F F
Essa barra que é gostar de você

Gm Gm
Hiê!
F F
Didididiê
Gm Gm
Didididiê ê ê
F F
Didididiê

# [Segunda Parte]

Gm Gm
Estou na sua casa quero ir pro
F F
Cinema você não gosta
Gm Gm F F
Um motelzinho você fecha a porta

# [Refrão]
Gm Gm
Então me ajude a segurar
F F
Essa barra que é gostar de você
Gm Gm
Então me ajude a segurar
F F
Essa barra que é gostar de você

Gm Gm
Hiê!
F F
Didididiê
Gm Gm
Didididiê ê ê
F F
Didididiê

# [Solo]


A|---------------------------------------------------
E|-6-6-5-3-6-6-6-5-3-6-5-3-5-3-3-----------------3---
C|----------------------------5-5-2-5-2-2-2-5-2-5----
G|---------------------------------------------------


A|-------------------5-5-3-3--------3--------5-2-5---|
E|-6-6-5-3-6--6-6-5-3-----6-5-5-5--5-5-5-5--5-----3--|
C|---------------------------------------------------|
G|---------------------------------------------------|

 

Tab Kommentare (0)
Noch kein Kommentar vorhanden :(
Brauchen Sie Hilfe, haben Sie einen Tipp zu teilen, oder wollen einfach nur über dieses Lied sprechen? Starte die Diskussion!

Sie müssen angemeldet sein, um an der Diskussion teilnehmen zu können
oder Beitreten

 

Über dieses Lied

Keine Informationen über dieses Lied.