Let Her Go Tabulatur von Passenger

Ukulele Tabs ohne Akkorde.

7/10
druckenTab ins SongBook hinzufügen

Tablature / Chords (Ganzer Song)

Font size: A- A A+

Künstler: 
Jahr:  2012
Key: unbekanntTabulaturen (ohne Akkorde)
Intro

A|0h2-0---------2--0h2-0---------2-0--0h2-0-----------5p2-----2-|
E|------3---3------------3---3--------------3---3----3-----3h5--|
C|-------2h4---4----------2h4---4------------2h4---4------------|
G|--------------------------------------------------------------|


A|0h2-0---------2--0h2-0---------2-0--0h2-0-----------5p2-----2-|
E|------3---3------------3---3--------------3---3----3-----3h5--|
C|-------2h4---4----------2h4---4------------2h4---4------------|
G|--------------------------------------------------------------|

Chorus

A|0h2-0h2-0-------------0h2-0---------2-00-----0h2-0-------------|
E|---------3-3-33303---------3-3h5-5-3----3---------3-3h5-3----3--
C|---------------------------------------------------------4442--|
G|----------------------------------------------------------------


A|0h2-2-0-------------0h2-0---------2-00-----0h2-0---------------|
E|-------3-3-33303---------3-3h5-5-3----3---------3-3h5-3----3----
C|-------------------------------------------------------4442----|
G|----------------------------------------------------------------



A|0-2-00-|
E|-3----3-
C|--------
G|--------

-Bridge-

Verse

A|22222p0----3p2-2-0-00---------2-0----2--0---|
E|--------3-3----------3-2-2--------3------3--|
C|-----------------------------4-----44-----4-|
G|--------------------------------------------|


A|22222p0----3p2-2-0-00---------22222---------|
E|--------3-3----------3-2-2----------3-3-5p3-|
C|--------------------------------------------|
G|--------------------------------------------|

Chorus

A|0h2-0h2-0-------------0h2-0---------2-00-----0h2-0-------------|
E|---------3-3-33303---------3-3h5-5-3----3---------3-3h5-3----3--
C|---------------------------------------------------------4442--|
G|----------------------------------------------------------------


A|0h2-2-0-------------0h2-0---------2-00-----0h2-0---------------|
E|-------3-3-33303---------3-3h5-5-3----3---------3-3h5-3----3----
C|-------------------------------------------------------4442----|
G|----------------------------------------------------------------

Verse

A|22222p0----3p2-2-0-0---------2-0----2--0----|
E|-------333----------3-222--------3------3---|
C|----------------------------4-----44-----4--|
G|--------------------------------------------|



A|2h3-55555p2-22---7-555-0-0-0-2---22202-2--2-0---
E|--------------------------3------------------3--
C|----------------------------------------44----4|
G|-----------------------------------------------|

Chorus

A|0h2-0h2-0-------------0h2-0---------2-00-----0h2-0-------------|
E|---------3-3-33303---------3-3h5-5-3----3---------3-3h5-3----3--
C|---------------------------------------------------------4442--|
G|----------------------------------------------------------------


A|2h3-5-3-2-3-333-2-5p2---55555-00-222p1----0h2-0----------------|
E|-----------------------------------------------3-3h5-3-----7\5-3-
C|-------------------------------------------------------4442-----|
G|-----------------------------------------------------------------


A---2-0-0---
E--------3--
C-22------4-
G-----------

⇢ Nicht zufrieden mit dieser Tabulatur? 35 andere Version(en) anzeigen

Tabulatur von , 11 Apr 2013

Tab Kommentare (4)

Kommentieren
Teilen Sie Ihre Strumming-Muster, Akkorde oder Tipps zum Spielen dieser Registerkarte mit!
Filtern nach:
rainberry_ avatar
it sounds really good
09 Apr 2020
Kommentar
Pandakilla5 avatar
flag for US(ISO2) (Tempe)
first real tab ive seen thank omg ily
07 Jan 2017
Kommentar
Sylver avatar
Woww, sound really good!
02 Jul 2013
Kommentar
PaulCodder avatar
flag for IT(ISO2) (Portoferraio)
Good Job!
28 Apr 2013
Kommentar

Top Tabs & Akkorde von Passenger, verpassen Sie diese Songs nicht!

Über dieses Lied: Let Her Go

Keine Informationen über dieses Lied.

Haben Sie Let Her Go auf Ihrer Ukulele gecovert? Teilen Sie Ihr Werk!
Cover abgeben