Already Dead Tabulatur von Lil' Boom

Ukulele Tabs ohne Akkorde.

Tab ins SongBook hinzufügen
Tablature / ChordsFont size: A- A A+

Sie wissen nicht wie man einen Tab oder Akkorde liest ?
Schauen Sie sich diesen uke Unterricht an:

Ukulelen-Unterricht

Cmaj7 Cmaj7             Bm7 Bm7      B7 B7       Em7 Em7       Gb6 Gb6 F6 F6  Dm7 Dm7      G7 G7
A|---2-2-2-|---2-2-2-|---2-2-2-|---2-2-2-|---2-2-2--|---6--5-|---3-3-3-|---2-2-2--|
E|---3-3-3-|---3-3-3-|---2-2-2-|---2-2-2-|0-0-0-0--|0-6--5-|0-1-1-1-|0--1-1-1-|
C|0-0-0-0-|0-0-0-0-|2-2-2-2-|2-3-3-3-|---2-2-2--|---6--5-|---2-2-2-|---2-2-2--|
G|---0-0-0-|---0-0-0-|---2-2-2-|---2-2-2-|---0-0-0--|---6--5-|---2-2-2-|---0-0-0--|

Cmaj7 Cmaj7 Bm7 Bm7 B7 B7 Em7 Em7 Gb6 Gb6 F6 F6 Dm7 Dm7 G7 G7
A|---2-2-2-|---2-2-2-|---2-2-2-|---2-2-2-|---2-2-2--|---6--5-|--3-3-3-|--2-----|
E|---3-3-3-|---3-3-3-|---2-2-2-|---2-2-2-|0-0-0-0--|0-6--5-|0-1-1-1-|--1-----|
C|0-0-0-0-|0-0-0-0-|2-2-2-2-|2-3-3-3-|---2-2-2--|--6--5-|---2-2-2-|--2-----|
G|---0-0-0-|---0-0-0-|---2-2-2-|---2-2-2-|---0-0-0--|--6--5-|---2-2-2-|--0-----|

Chorus
Cmaj7 Cmaj7 Bm7 Bm7 B7 B7 Em7 Em7 Gb6 Gb6 F6 F6 Dm7 Dm7 G7 G7
A|---2-2-2-|---2-2-2-|---2-2-2-|---2-2-2-|---2-2-2--|---6--5-|---3-3-3-|---2-2-2--|
E|---3-3-3-|---3-3-3-|---2-2-2-|---2-2-2-|0-0-0-0--|0-6--5-|0-1-1-1-|0--1-1-1-| 8x
C|0-0-0-0-|0-0-0-0-|2-2-2-2-|2-3-3-3-|---2-2-2--|---6--5-|---2-2-2-|---2-2-2--|
G|---0-0-0-|---0-0-0-|---2-2-2-|---2-2-2-|---0-0-0--|---6--5-|---2-2-2-|---0-0-0--|

Ending
Cmaj7 Cmaj7 Bm7 Bm7 B7 B7 Em7 Em7 Gb6 Gb6 F6 F6 Dm7 Dm7 G7 G7
A|---2-2-2-|---2-2-2-|---2-2-2-|---2-2-2-|---2-2-2--|---6--5-|--3-3-3-|--2-----|
E|---3-3-3-|---3-3-3-|---2-2-2-|---2-2-2-|0-0-0-0--|0-6--5-|0-1-1-1-|--1-----|
C|0-0-0-0-|0-0-0-0-|2-2-2-2-|2-3-3-3-|---2-2-2--|--6--5-|---2-2-2-|--2-----|
G|---0-0-0-|---0-0-0-|---2-2-2-|---2-2-2-|---0-0-0--|--6--5-|---2-2-2-|--0-----|

 

Tab Kommentare (1)
Sie müssen angemeldet sein, um an der Diskussion teilnehmen zu können
oder Beitreten

 

JaniFrog avatar
oh hi tiktok.
26 Sep 2019
Über dieses Lied

Keine Informationen über dieses Lied.