Bats In The Belfry (acoustic) Tabulatur von Dispatch

Ukulele Tabs ohne Akkorde.

Song bewerten!
druckenTab ins SongBook hinzufügen

Tablature / Chords (Vereinfachter Song)

Font size: A- A A+

Künstler: 
Album: 
Jahr:  1997
Key: unbekanntTabulaturen (ohne Akkorde)
---------------------------------------------------|
-4------4-------4-------4-------4-------4-------6--|
-3------1-------3-------1-------3-------1-------3--|
-4------6-------4-------6-------4-------6-------8--|
---------------------------------------------------|
-6------2-------6-------2-------6-------2-------4--|
-3------1-------3-------1-------3-------1-------1--|
-8------3-------8-------3-------8-------3-------6--|
-----------------------------------------------------------|
-6------2-------6-------2-------6-------2-------6-------2--|
-3------1-------3-------1-------3-------1-------3-------1--|
-8------3-------8-------3-------8-------3-------8-------3--|
------------------------2-------------------------------2--|
-4------4-------2-------2-------4-------4-------2-------2--|
-3------1-------1---------------3-------1-------1----------|
-4------6-------3-------4-------4-------6-------3-------4--|
------------------------2--------------------------|
-4------4-------2-------2-------4-------4-------2--|
-3------1-------1---------------3-------1-------1--|
-4------6-------3-------4-------4-------6-------3--|
---------------------------------------------------|
-4------4-------4-------4-------4-------4-------6--|
-3------1-------3-------1-------3-------1-------3--|
-4------6-------4-------6-------4-------6-------8--|
---------------------------------------------------|
-6------2-------6-------2-------6-------2-------4--|
-3------1-------3-------1-------3-------1-------1--|
-8------3-------8-------3-------8-------3-------6--|
-----------------------------------------------------------|
-6------2-------6-------2-------6-------2-------6-------2--|
-3------1-------3-------1-------3-------1-------3-------1--|
-8------3-------8-------3-------8-------3-------8-------3--|
------------------------2-------------------------------2--|
-4------4-------2-------2-------4-------4-------2-------2--|
-3------1-------1---------------3-------1-------1----------|
-4------6-------3-------4-------4-------6-------3-------4--|
------------------------2--------------------------|
-4------4-------2-------2-------4-------4-------2--|
-3------1-------1---------------3-------1-------1--|
-4------6-------3-------4-------4-------6-------3--|
---------------------------------------------------|
-4------4-------4-------4-------4-------4-------6--|
-3------1-------3-------1-------3-------1-------3--|
-4------6-------4-------6-------4-------6-------8--|
-----------------------------------|
-6------6-6-----6-------6-6-6-6-6--|
-3------3-3-----3-------3-3-3-3-3--|
-8------8-8-----8-------8-8-8-8-8--|
---------------------------------------------------|
-6------2-------6-------2-------6-------2-------4--|
-3------1-------3-------1-------3-------1-------1--|
-8------3-------8-------3-------8-------3-------6--|
--------6----------------6----------------6----------------6----|
-6------9-------6-------9-------6-------9-------6-------9---|
-3------6-------3-------6-------3-------6-------3-------6---|
-8------11-------8-------11-------8-------11-------8-------11---|
------------------------2-------------------------------2--|
-4------4-------2-------2-------4-------4-------2-------2--|
-3------1-------1---------------3-------1-------1----------|
-4------6-------3-------4-------4-------6-------3-------4--|
-------------------|
-4------4-------2--|
-3------1-------1--|
-4------6-------3--|
---------------------------------------------------|
-4------4-------4-------4-------4-------4-------6--|
-3------1-------3-------1-------3-------1-------3--|
-4------6-------4-------6-------4-------6-------8--|
---------------------------------------------------|
-6------2-------6-------2-------6-------2-------4--|
-3------1-------3-------1-------3-------1-------1--|
-8------3-------8-------3-------8-------3-------6--|
---------------------------------------------------|
-6------2-------6-------2-------6-------2-------6--|
-3------1-------3-------1-------3-------1-------3--|
-8------3-------8-------3-------8-------3-------8--|

Tabulatur von ,

Tab Kommentare (0)

Noch kein Kommentar vorhanden :(
Brauchen Sie Hilfe, haben Sie einen Tipp zu teilen, oder wollen einfach nur über dieses Lied sprechen? Starte die Diskussion!

Kommentieren
Teilen Sie Ihre Strumming-Muster, Akkorde oder Tipps zum Spielen dieser Registerkarte mit!

Top Tabs & Akkorde von Dispatch, verpassen Sie diese Songs nicht!

Über dieses Lied: Bats In The Belfry (acoustic)

Keine Informationen über dieses Lied.

Haben Sie Bats In The Belfry (acoustic) auf Ihrer Ukulele gecovert? Teilen Sie Ihr Werk!
Cover abgeben