Black Magic Woman Tabulatur von Carlos Santana

7 Im Lied verwendete Ukulelengriffe: Gm,Dm7,Am7,Gm7,D,C,G

Tab ins SongBook hinzufügen
Tablature / ChordsFont size: A- A A+

Sie wissen nicht wie man einen Tab oder Akkorde liest ?
Schauen Sie sich diesen uke Unterricht an:

Ukulelen-Unterricht

Dm |------------|--------------|-------------|------------|----------| |-3s1--------|--------------|-------------|------------|-1h3p1----| |------------|------------2s|=4s2---------|------------|----------| |------------|--------------|-------------|------------|----------|
|--------------|----------------|-------------|----------------| |------------1-|----------------|-------------|-5----3----1p0--| |--------------|-2s4s2----------|-------------|----------------| |--------------|----------------|-------------|----------------|
GmDm7 |-------------|---------------|-------------|---------------| |-------------|-3----1--------|-------------|-5----3----1p0-| |-------------|-----------4s2-|-------------|---------------| |-------------|---------------|-------------|---------------|
GmDm7 |-----------|-------------|-----0-5-8-12-17-| |-----------|-3---1-------|-----------------| |-----------|---------4---|---2-------------| |-----------|-------------|-----------------|
Guitar Solo: Dm7 Dm7 //// //// Am7 Am7 //// //// Dm7 Dm7 //// //// Gm7 Gm7 //// //// Dm7 Dm7 //// Am7 Am7 //// Dm7 Dm7 //// //// /...
Piano Solo: Dm7 Dm7 //// //// //// //// //// //// //// /...
Dm7 Dm7Am7 Am7 I got a black magic woman, I got a black magic woman
Dm7 Dm7Gm7 Gm7 I got a black magic woman, got me so blind I can't see
Dm7 Dm7Am7 Am7Dm7 Dm7 That she?s a black magic woman, she?s try'in to make a devil out of me
Don?t turn your back
Yes, don?t turn your Dm7 Dm7
Dm7 Dm7Am7 Am7 on me baby, don?t turn your back on me baby Dm7 Dm7Gm7 Gm7 back on me baby, stop messin? round with your tricks
Am7 Am7Dm7 Dm7 on me baby, you might just pick up my magic sticks
Don?t turn your back .... Guitar Solo: Dm7 Dm7 //// //// Am7 Am7 //// //// Dm7 Dm7 //// //// Gm7 Gm7 //// ////
Dm7 Dm7 ////
Got your Got your
Am7 Am7 //// Dm7 Dm7 //// //// /... (repeat)
Dm7 Dm7Am7 Am7 spell on me baby, got your spell on me baby Dm7 Dm7Gm7 Gm7
spell on me baby, turnin? my heart into stone
Dm7 Dm7Am7 Am7Dm7 Dm7 I need you so bad, magic woman I can't leave you alone
Dm |------------|--------------|-------------|------------|----------| |-3s1--------|--------------|-------------|------------|-1h3p1----| |------------|------------2s|=4s2---------|------------|----------| |------------|--------------|-------------|------------|----------|
|--------------|----------------|-------------|----------------| |------------1-|----------------|-------------|----------------| |--------------|-2s4s2----------|-------------|----------------| |--------------|----------------|-------------|----------------|
Gypsy Queen (key change to D D)
D |-------------|-------------|----------|--------|----------|
|-------------|-------------|----------|--------|----------| |-2---2---2---|-2---2---2---|-2--------|--------|----------| |---2---2---2-|---2---2---2-|-2--------|--------|----------|
|--------------|------------|------------|---------------|---------| |--------2h3p2-|------2-----|------------|---2h3p2-----2-|---------| |--------------|-2----2-----|------------|---------2---2-|---------| |--------------|------2-----|------------|-----------2-2-|---------|
|------------|-------------|-----------------|----------------|-------| |----------0-|-2/5---------|---------2h3p2p0-|---2------------|-------| |--------2---|-------------|-----------------|-2-2------------|-------| |------------|-------------|-----------------|---2------------|-------|
|---------------|--------------|-----------------|--------------|-----| |---------------|--------------|-------3-3-2-2p0-|---2----------|-----| |---2---0---0-0-|--------------|-----------------|-2-2----------|-----| |-2---2---2-----|-0h2----------|-----------------|---2----------|-----| Solo on repeat. (D D)
D D /... /... /... C C / G G / D D / .... C C / G G / D D / .... C C / G G / D D / ....
|-------------|-------------|-------------|-------------| |-----------0-|-----------0-|-----------0-|-----------0-| |-2---0-2-----|-2---0-2-----|-2---0-2-----|-2---0-2-----| |---2-----2---|---2-----2---|---2-----2---|---2-----2---| repeat
C C/ G G / A A/ .... (feedback into ?eOye Como Va?)

 

Tab Kommentare (2)
Sie müssen angemeldet sein, um an der Diskussion teilnehmen zu können
oder Beitreten

 

sexy uke420 avatar
flag for US(ISO2) (Napa )
You gotta make breaks dude
21 Oct 2011
Matlyburger avatar
flag for GB(ISO2) (Nantwich)
gash
16 Jul 2010
Über dieses Lied

Keine Informationen über dieses Lied.