O Canada Tabulatur von Calixa Lavallée

Ukulele Tabs ohne Akkorde.

Tab ins SongBook hinzufügen
Tablature / ChordsFont size: A- A A+

Sie wissen nicht wie man einen Tab oder Akkorde liest ?
Schauen Sie sich diesen uke Unterricht an:

Ukulelen-Unterricht

O Canada Tab
C C tuning
notes spaced out to go with the words not duration. Sorry the words didn't show up


A-0-3---3---------0----1---3--5----------0----2--2-----3---5---7-----
E---------1-- 3--------------------3---------------------------------
C--------------------------------------------------------------------
G--------------------------------------------------------------------
O Can-a-da! Our home and na-tive land! True pa-triot love in all



A-7---5----5---3-------0--1----0----------0-1-3---1----0-----1-3-5---
E--------------------3-------------3---------------------------------
C--------------------------------------------------------------------
G--------------------------------------------------------------------
thy sons com-mand. With glow-ing hearts w-e see thee rise, The True



A-3-----1------0-----------0--1---0--------0-1-3---1-0--0--------3---
E------------------3-----3------------3--------------------3---------
C--------------------------------------------------------------------
G--------------------------------------------------------------------
North strong and free! From far and wide O- Can-a-da we stand on



A-3-2---0-2-------0---3----3--------1---5-----5---------3-4---4-5----
E-----------3------------------1------------------3------------------
C--------------------------------------------------------------------
G--------------------------------------------------------------------
guard for thee. God keep our land glo-rious and free! O Can-a-da,



A-1--0------------------0-----3-8---8-5---1--0--------3-----0---1----
E----------3--1-----3------------------------------3-----------------
C--------------------------------------------------------------------
G--------------------------------------------------------------------
we stand on guard for thee. O Can-a-da, we stand on guard for thee.

 

Tab Kommentare (0)
Noch kein Kommentar vorhanden :(
Brauchen Sie Hilfe, haben Sie einen Tipp zu teilen, oder wollen einfach nur über dieses Lied sprechen? Starte die Diskussion!

Sie müssen angemeldet sein, um an der Diskussion teilnehmen zu können
oder Beitreten

 

Über dieses Lied

Keine Informationen über dieses Lied.