Amazing Grace Tab de uke por Traditional English

Ukulele Tab sem cifras.

8.3/10
ImprimirAdicionar tab ao seu Livro de Música

Tablature / Chords (

Font size: A- A A+

Álbum:  desconhecido
Tom: desconhecidoTablatura (sem cifras)
Meledy
|---3-3--7-5-3-7--5-3--0------3-3--7-5-3-7--5-7-10--7-10-10--|
|-----0--------6----1----0------0--------5-------7--------0--|
|-----0--------0----0----0------0--------4-------5--------0--|
|-0---0--------0----2----0--0---0--------5-------0--------0--|


|-7-5-3-7--5-3--0------3-3--7-5-3-7-----3-|
|-------6----1----0------5--------7--10-3-|
|-------0----0----0------4--------7-----4-|
|-------0----2----0--0---2--------7-----5-|

Tab de uke por , 26 Mai 2010

Comentários da tab (1)

Tem algo para dizer?
Compartilhe seus Padrões de batida, acordes ou dicas para tocar esta aba!
Filtrar por:
gdmvuke avatar
I really like the tab, I don't use the 10 at the end and just play 5 on the top string. Easier transition and sounds good with a slide.
20 Apr 2012
Comentário

Top Tablaturas e Cifras por Traditional English, não perca estas músicas!

Sobre esta música: Amazing Grace

Nenhuma informação sobre esta música.

Você cobriu Amazing Grace em seu Ukulele? Compartilhe seu trabalho!
Enviar um cover