Home - Undertale Tab de uke por Toby Fox

Ukulele Tab sem cifras.

7.4/10
ImprimirAdicionar tab ao seu Livro de Música

Tablature / Chords (Música Inteira)

Font size: A- A A+

Artista: 
Álbum:  desconhecido
Tom: desconhecidoTablatura (sem cifras)
A|-------------------------------------
E|---------------------5---------------
C|--4---------------------------4------
G|-----9------4-------------9----------

A|--------------------------------------
E|------5-----------------------5-------
C|--4-----------------------------------
G|------------9-----11-----9--4---------

A|-------------------------------------
E|----------------------5--------------
C|--4----------------------------4-----
G|------9------4------------9----------

A|---------------------------------------
E|------5-------------------------5------
C|--4------------------------------------
G|-------------9-----11------9---4-------

A|-----------------------------------------------
E|-----------------5--4-5------------------------
C|--4--------------------------------------------
G|------9---6---4------------4---13--12---11---9-

A|-------------------------------------------------
E|-------------------5-----------4----------5--4-5-
C|--6----------------------------------------------
G|--------9---6---4-----4----6-------4---4---------

A|--------------------------------------------------
E|------------------5--4-5--------------------------
C|--4-----------------------------------------------
G|--------9---6--4-----------4-------13--12---11---9

A|-------------------------------------------------
E|------------------5---------4-----------5--4---5-
C|--6----------------------------------------------
G|-------9---6---4-----4--6-------4----4-----------

Simple version of "Home" from Undertale for the Ukulele.
On the official "Home Soundtrack" from the game, this part of the song starts at 0:37 and ends at 1:44.

Tab de uke por , 09 Fev 2016

Comentários da tab (3)

Tem algo para dizer?
Compartilhe seus Padrões de batida, acordes ou dicas para tocar esta aba!
Filtrar por:
bergamotessence avatar
4th fret on the C string is the same as none on the E string. Helped me play a little bit quicker that way, hope that helps!
20 Jun 2020
Correção
Aluha avatar
You can also play
A| - - 11 - 10 - 9 - 7 - -
E| - - - - - - - - - - - - - - - -
C| - - - - - - - - - - - - - - - -
G| - - - - - - - - - - - - - - - -
instead of:
A| - - - - - - - - - - - - - - - -
E| - - - - - - - - - - - - - - - -
C| - - - - - - - - - - - - - - - -
G| - - 13 - 12 - 11 - 9 - -
06 Jan 2019
Correção
eenie avatar
flag for AU(ISO2) (Perth)
very good thanks
18 Feb 2018
Comentário

Top Tablaturas e Cifras por Toby Fox, não perca estas músicas!

Sobre esta música: Home - Undertale

Nenhuma informação sobre esta música.

Você cobriu Home - Undertale em seu Ukulele? Compartilhe seu trabalho!
Enviar um cover