Catch A Falling Star Tab de uke por Perry Como

Ukulele Tab sem cifras.

Avalie a canção!
ImprimirAdicionar tab ao seu Livro de Música

Tablature / Chords (

Font size: A- A A+

Artista: 
Ano:  1999
Tom: desconhecidoTablatura (sem cifras)
A|----------------------------------------|
E|-0-0-0-0-0-1-3-3-3-3-3-5--3-3-3-3-3-1-0-|
C|----------------------------------------|
G|----------------------------------------|


A|----------------------------------------|
E|-0-0-0-0-0-1-3-3-3-3-3-5--3-3-3-3-3-1-0-|
C|----------------------------------------|
G|----------------------------------------|

A|----------------------------------------|
E|---5-4-5-7-8-7-8-7-10-8--3-2-5-3--------|
C|-0--------------------------------------|
G|----------------------------------------|

⇢ Não satisfeito com esta tablatura? Ver 1 outra(s) versão(ões)

Tab de uke por , 09 Jul 2017

Comentários da tab (0)

Nenhum comentário ainda :(
Precisa de ajuda, tem uma dica para compartilhar ou simplesmente quer falar sobre essa música? Inicie a discussão!

Tem algo para dizer?
Compartilhe seus Padrões de batida, acordes ou dicas para tocar esta aba!

Top Tablaturas e Cifras por Perry Como, não perca estas músicas!

Sobre esta música: Catch A Falling Star

Nenhuma informação sobre esta música.

Você cobriu Catch A Falling Star em seu Ukulele? Compartilhe seu trabalho!
Enviar um cover