The Death Of You And Me Tab de uke por Noel Gallagher's High Flying Birds

9 Acordes usados na música: Em, B7, Am, C, G, Em7, Am7, Em9, B

ImprimirAdicionar tab ao seu Livro de Música
Tablature / ChordsFont size: A- A A+

Não sabe ler uma tab ou uma cifra? Confira estas aulas de uke:

Intro:                                              
Em Em
A|-9-----10----9--7--------5-6-7------------------------2-2|
E|---7---------------7-----------7----------------------3-3|
C|-----------------------------------------------2h4----4-4|
G|-----0----0-----------0-----------0---4-3-2-0---------0-0|

Em Em B7 B7 (3x) Am Am C C

Em Em B7 B7 (3x) Am Am C C

Verse:
Em Em B7 B7 Em Em B7 B7
High tide, summer in the city
Em Em B7 B7
The kids are looking pretty
Am Am C C Em Em B7 B7
But isn't it a pity that the sunshine
Em Em B7 B7 Em Em B7 B7
Is followed by the thunder, with thoughts of going under
Am Am C C
And is it any wonder

Chorus:
G G B7 B7
Why the sea is calling out to me
Em Em Em7 Em7 C C
I seem to spend my whole life running
G G
From people who would be
B7 B7
The death of you and me
Em Em Em7 Em7
Cause I can feel the storm clouds
Am7 Am7 C C
Sucking up my soul


Em Em B7 B7 (3x) Am Am C C


Em Em B7 B7 Em Em B7 B7
High tide, life is getting faster
Em Em B7 B7
And no one has the answer
Am Am C C
I try to face the day though
Em Em B7 B7
In a new way
Em Em B7 B7
A A bottom of a bottle
Em Em B7 B7
Cuz every man's a puzzle
Am Am C C
Let's run away together


G G
You and me
B7 B7
Forever we'd be free
Em Em Em7 Em7 C C
Free to spend our whole lives running
G G
From people who would be
B7 B7
The death of you and me
Em Em Em7 Em7
Cause I can feel the storm clouds
Am7 Am7 C C
Sucking up my soul


A|-9-----10----9--7--------5-6-7------------------------|
E|---7---------------7-----------7----------------------|
C|------------------------------------------------------|
G|-----0----0-----------0-----------0---4-3-2-0---------|

Trumpet part:

C C B7 B7 Em Em Em7 Em7 C C B7 B7

Em Em Em9 Em9 G G B B

C C B7 B7 Em Em Em7 Em7 C C B7 B7 Em Em


G G
Let's run away and see
B7 B7
Forever we'd be free
Em Em Em7 Em7 C C
Free to spend our whole lives running
G G
From people who would be
B7 B7
The death of you and me
Em Em Em7 Em7 C C
Cause I can feel the storm clouds coming


G G B7 B7
Watching my tv, or is it watching me?
Em Em Em7 Em7 C C
I see another new day dawning
G G B7 B7
It's rising over me, my mortality
Em Em Em7 Em7
And I can feel the storm clouds
Am7 Am7 C C
Sucking up my soul

A|-9-----10----9--7--------5-6-7------------------------|
E|---7---------------7-----------7----------------------|
C|-----------------------------------------------2h4----|
G|-----0----0-----------0-----------0---4-3-2-0---------|


Em Em B7 B7 (3x) C C B7 B7

Em Em B7 B7 (3x)

C C B7 B7 Em Em

 

Comentários da tab (0)
Nenhum comentário ainda :(
Precisa de ajuda, tem uma dica para compartilhar ou simplesmente quer falar sobre essa música? Inicie a discussão!

Você deve estar logado para participar da discussão
ou Cadastrar

 

Sobre esta música

Nenhuma informação sobre esta música.