Prelude Of Light Tab de uke por Koji Kondo

Ukulele Tab sem cifras.

Avalie a canção!
ImprimirAdicionar tab ao seu Livro de Música

Tablature / Chords (

Font size: A- A A+

Artista: 
Álbum:  desconhecido
Tom: desconhecidoTablatura (sem cifras)
A-----------------------------------8------------------------------------8-
E-----5-----------------5---------L-9-----------------------------------9
C-----------------------------------8-----------------------------------8
G-7-----------------7-------4---7---11-----------------------------------11

A-----------------------------------8------------------------------------8-
E-----5-----------------5---------L-9-----------------------------------9
C-----------------------------------8-----------------------------------8
G-7-----------------7-------4---7---11-----------------------------------11

A-----------------------------------8------------------------------------8-
E-----------------------------------9-----------------------------------9
C-----------------------------------8-----------------------------------8
G-----------------------------------11-----------------------------------11

A-------------------0---------------8------------------7------------------8-
E-------------------------------5---9-----2---5-------------------------9
C---------------6-------2---6-------8-2---------------6-----------------8
G-----------7-----------------------11-------------6---7-----------------11

Tab de uke por , 27 Abr 2012

Comentários da tab (0)

Nenhum comentário ainda :(
Precisa de ajuda, tem uma dica para compartilhar ou simplesmente quer falar sobre essa música? Inicie a discussão!

Tem algo para dizer?
Compartilhe seus Padrões de batida, acordes ou dicas para tocar esta aba!

Top Tablaturas e Cifras por Koji Kondo, não perca estas músicas!

Sobre esta música: Prelude Of Light

Nenhuma informação sobre esta música.

Você cobriu Prelude Of Light em seu Ukulele? Compartilhe seu trabalho!
Enviar um cover