The Imperial March (Intro) Tab de uke por John Williams

Ukulele Tab sem cifras.

Avalie a canção!
ImprimirAdicionar tab ao seu Livro de Música

Tablature / Chords (Intro)

Font size: A- A A+

Artista: 
Ano:  1980
Dificuldade: 
5
(Intermediario)
Tom: desconhecidoTablatura (sem cifras)
Intro

A|----------------------------------------|
E|----------------------------------------|
C|----------------------------------------|
G|0-0-0-0-0-0-0-1-1-1-------------------|


A|----------------------------------------|
E|----------------------------------------|
C|----------------------------------------|
G|0-0-0-0-0-0-0-1-1-1-------------------|








A| -------------------------------------------- |
E|3-3-3--6-3--6-3--10-10-10-11-6-3--6-3---|
C|------3----3-----------------------3-------|
G|--------------------------------------------|



A|10--7-10-9-8-7-6-7--4-3-2-1-0-1------------------------|
E|---3----------------3----------------3--6-3--6-3--------|
C|------------------------------------3--3----3------------|
G|----------------------------------------------------------|

Tab de uke por , 13 Mai 2022

Comentários da tab (1)

Tem algo para dizer?
Compartilhe seus Padrões de batida, acordes ou dicas para tocar esta aba!
Filtrar por:
carolinedixon646 avatar
I can't wait to feel the way your presence sets my entire body on fire. Let's explore that feeling together, with a slow, deliberate touch, leading to a night we won't soon forget. f1nd me on carolinedixon_mooo_com change _ to dot
14 Jul 2024
Comentário

Top Tablaturas e Cifras por John Williams, não perca estas músicas!

Sobre esta música: The Imperial March

Nenhuma informação sobre esta música.

Você cobriu The Imperial March em seu Ukulele? Compartilhe seu trabalho!
Enviar um cover