Taylor (intro) Tab de uke por Jack Johnson

Ukulele Tab sem cifras.

4.6/10
ImprimirAdicionar tab ao seu Livro de Música

Tablature / Chords (

Font size: A- A A+

Artista: 
Álbum:  desconhecido
Tom: desconhecidoTablatura (sem cifras)
Intro

G|----------------------------------------------------------------
C|--------------------4---------7p6p4-5--5--5h6h7-----------------
E|--6h8----6h8p6--------6--6----------------------------6--7---8--
A|----------------------------------------------------------------


G|----------------------------------------------------------------
C|-------------------------4-5--5----5h7----5h7---5h7----5h7------
E|----------8-------8--6-----------------6------6-----6------6----
A|--6h8p6------8--7-----------------------------------------------


G|------------------------------------------5-------------------------
C|------------------------------------------5-------------------------
E|---8----------------------------------8---5-------------------------
A|------------8--/10--10--8--6--8---6-------6-------------------------


G|---------------------------------5------------------------
C|--4----4--4--4-4--4--4--4--4-----5------------------------
E|--3----3--3--3-3--3--3--3--0-----5------------------------
A|--3----3--5--7-7--5--5--3--0-----7------------------------

⇢ Não satisfeito com esta tablatura? Ver 1 outra(s) versão(ões)

Tab de uke por , 24 Dez 2009

Comentários da tab (1)

Tem algo para dizer?
Compartilhe seus Padrões de batida, acordes ou dicas para tocar esta aba!
Filtrar por:
h3isbomb avatar
flag for US(ISO2) (cerritos)
this tab is PERFECT!!! BUTT the thing i forgot was that the A E C G was backwards so i really had to use my mind REALLY hardd... maybe u can switch it around plz!??!! thank u!!!
29 Jun 2010
Correção

Top Tablaturas e Cifras por Jack Johnson, não perca estas músicas!

Sobre esta música: Taylor (intro)

Nenhuma informação sobre esta música.

Você cobriu Taylor (intro) em seu Ukulele? Compartilhe seu trabalho!
Enviar um cover