Mr.brownstone Tab de uke por Guns N Roses

Ukulele Tab sem cifras.

Avalie a canção!
ImprimirAdicionar tab ao seu Livro de Música

Tablature / Chords (

Font size: A- A A+

Artista: 
Álbum:  desconhecido
Tom: desconhecidoTablatura (sem cifras)
||o---------------------------------|---------------------------------o||
||--x-x-x-x-x-x-x-x-x-x-x-x---x-x-x-|-x-x-x-x-x-x-x-x-x-x-x-x---x-x-x--||
||----------------------------------|----------------------------------||
||--x-x-x-x-x-x-x-x-x-x-x-x---x-x-x-|-x-x-x-x-x-x-x-x-x-x-x-x---x-x-x--||

|----------------------------------|-------------------------------------|
|----------------------------------|-------------------------------------|
|-4--------------------------------|-4-4-5-5-5----------------------4----|
|----------------------------------|--------------------------9----------|

|-------2-0-------2-----0--|-5-4-2---------2-0-----2--|
|---3-4-------3-4---3-4-0--|-----------0-------3-4----|
|-4---------4-----4--------|-------------2---------4--|
|--------------------------|-------2-0----------------|

||o-------2-0-------2-----0--|---------(-)---2---(2)-------------2-|
||----3-4-------3-4---3-4-0--|-5-----4--4----2----2----3-3-5-----0-|
||--4---------4-----4--------|-2-----1-(1)-------(-)-----------4---|
||---------------------------|-------------------------------------|

|-------2p0-------2-----0--|-5-----4-(4)---2---(2)-----------7p5h6-||
|-0-3h4-----0-3h4-0-3h4----|-------------------------3b4-(3)-------||
|-----------------------4--|-9-----8-(8)---6---(6)-----------------||
|--------------------------|---------------------------------------||

|-5h7---7-----5-7\----------0----x-x-|-10-12---12-----10-12----------2----x-x-|
|-----------------------3h4----------|---------------------------3h4-0----x-x-|
|---------------------------4----x-x-|-------------------------------4----x-x-|
|------------------------------------|----------------------------------------|

|-----x---(-)-x-----(-)--------------|-----------------------------------|
|-----------------------3---3-5------|-3-----3--3----3---3--3---3--------|
|-4-----2--2----2-4--4----4----------|---------(-)------(-)---2---4------|
|------------------------------------|-6-----------x---------------------|

|-5h7---7-----5-7\----------0----x-x-|
|-----------------------3h4----------|
|---------------------------4----x-x-|
|------------------------------------|

|-10-12---12-----10-12------0---------2---x-x--o||
|-----------------------------3b4-(4)-0---x-x---||
|---------------------------4---------4---x-x---||
|-----------------------------------------------||

|-5--------------------5h7-||-7-7-x-7---x-------7------x-7-(7)---5-7-|
|----2-(2)-3-(3)-4-5h7-----||----------------------------------7-----|
|--------------------------||----------------------------------------|
|--------------------------||----------------------------------------|

|-7-7-x-7---x-------10-11------11--7-(7)---5-7-|
|----------------------------------------7-----|
|---------------------b-------(--)-------------|
|----------------------------------------------|

|-7-7-x-7---x-------12---------10--10----5-7-|-7--5--4-2---------|
|--------------------------------------7-----|-----------4-5-4-2-|
|---------------------b--(-)------(--)-------|-------------------|
|----------------------3--3------------------|-------------------|

||o-9-x-7---x-9-x-x-5h6-9-x-x-|-7-x-5---x-7-x-x-3h4-7-x-x-|
||--7-x-5---x-7-x-x-----7-x-x-|-5-x-3---x-5-x-x-----5-x-x-|
||--11-x-9---x-11-x-x--11-x-x-|-9-x-7---x-9-x-x-----9-x-x-|
||----------------------------|---------------------------|

|-9-x-7---x-9-x-x-5h6-9-x-x-|-7-x-5---x-7-x-x-3h4-7-x-x-o||
|-7-x-5---x-7-x-x-----7-x-x-|-5-x-3---x-5-x-x-----5-x-x--||
|-11-x-9---x-11-x-x--11-x-x-|-9-x-7---x-9-x-x-----9-x-x--||
|---------------------------|----------------------------||

|-----------------------------------------------|
|---------------2----0-----------2-----0--------|
|---------6-------------------------------------|
|--------------------------------4-----2-=3-----|

|-----------------------------------------------------|
|---------------5-----5-----5----------------5--------|
|-----------------------------------------------------|
|-4-b5--(5-)-4-----4-----4-----4--4-b6--(6-)---11--9--|

|----------------7--------5---------------0---2-------|
|--0------------------------------------------0-------|
|-----------------------------------------4---4-------|
|-----------------------------------------2---1-------|

|---------------------------------------------------------------------------------------------------------|
|-------------------------------------------------------------------------------------------5--|
|----------------------------------------------------------------------------------------------|
|-14---13--14--13--11--9--11--11--9--6--9--6--4-b6--(6-)11--9--6--4-b6--4--11--14--11--4-b5-=(5-)r(4-)----|

|-----------------------------------------------------------------|
|--------------5-----5----------------------5--6---6--4--5--------|
|-----------------------------------------------------------------|
|-4---6--4--6-----11-----4-b6--(6-)-6--4--6----b---(--)-----4-b6--|

|-----------------------------------------------------------------|
|------------2--------0----------------2------------0-------------|
|--6--------------------------------------------------------------|
|--------------------------------------4------------2-3-----------|

|-------------7--------------5---------0---2----||
|---0--------------------------------------0----||
|--------------------------------------4---4----||
|--------------------------------------2---1----||

|---------------------------------------------------------------|
|------------------5--3--5---5---3---5---3---------3------------|
|--------------------------------------------5------------5-----|
|-5--7---7---7--10-------b---(--)----b--r(--)----7------7-------|
S
|------------------------------||
|------------------------------||
|-------------------------7----||
|-x-x-x-x---x---x-x-x-x-x-4----||

||-7--5--4-2---------||
||-----------4-5-4-2-||
||-------------------||
||-------------------||

|-------2---------------2---------|-------2--------------------|
|-0---------0-----0---------0-----|-0---------0-----0----------|
|---------------------------------|----------------------------|
|---0-1---2---0-1---0-1---2---0-1-|---0-1---2---0-1---0-1-[2]--|

|-------2-0-------------2-0-------|-------2-0--------------0---|
|-0-3-4-----0-3-4-0-3-4-----0-3-4-|-0-3-4-----0-3-4-0-3-4------|
|---------------------------------|------------------------4---|
|---------------------------------|------------------------2---|

|-5-4-2-----------5-4-2-----------|-5-4-2-----------2-0---------2---|
|-------------0---------------0---|-------------0-------3-4--4--0---|
|---------------2---------------2-|---------------2-------------4---|
|-------2-2-0-----------2-2-0-----|-------2-2-0-----------------1---|

Tab de uke por , 21 Nov 2011

Comentários da tab (0)

Nenhum comentário ainda :(
Precisa de ajuda, tem uma dica para compartilhar ou simplesmente quer falar sobre essa música? Inicie a discussão!

Tem algo para dizer?
Compartilhe seus Padrões de batida, acordes ou dicas para tocar esta aba!

Top Tablaturas e Cifras por Guns N Roses, não perca estas músicas!

Sobre esta música: Mr.brownstone

Nenhuma informação sobre esta música.

Você cobriu Mr.brownstone em seu Ukulele? Compartilhe seu trabalho!
Enviar um cover