Ave Maria Tab de uke por Franz Schubert

Ukulele Tab sem cifras.

10/10
ImprimirAdicionar tab ao seu Livro de Música

Tablature / Chords (Música Inteira)

Font size: A- A A+

Artista: 
Álbum: 
Ano:  2005
Tom: desconhecidoTablatura (sem cifras)
A||--5----0-------------5---------|--5--------------7--------------|
E||--2-----------------------2----|------------2----3--------------|
C||-------------------------------|----------------------4---------|
G||--2-------------2--------------|-------2---------4---------4----|

--7---------7--------------7----|--------------------------7----|
-------3--------------3----5----|-----------3---------5---------|
--------------------------------|--4----------------------------|
-----------------4---------6----|----------------6--------------|

--------------7----0------------|--5--------9------------------|
---------0----2-----------------|------------------------------|
--------------2---------2-------|-----------2-------------2----|
--6-----------2--------------2--|-----------4--------4---------|

--------2--4--5--2------------5----|-----2-------------7------------|
--2--------------0-----------------|--2--0-------------5----3-------|
----------------------4------------|--------------4-----------------|
-----4-----------1-------1---------|-----1-------------6---------6--|

--7--------------2--4--0---------|-----------------5----7-----------|
-------5----5----------2---------|--2---------0----2----10----------|
----------------------------6----|-----------------6----11----------|
-----------------------2---------|-------2---------2----7-----4----|

----------------------------------|-------5---------0-------------|
-------2--------0--2--7-----------|----2--0---------0--------0----|
--2----------2--------4--------4--|-------8-----------------------|
----------4-----------7-----------|-------4----4----4-------------|

--8---------------------------------|--4--------------2-----------2--|
--5--------------5-------2--3--5---|-------------------0--------0--|
--11---------6-------3--------------|--4--------4-------1-----------|
--8----4---------------------------|--4----------------0--------0--|

----2------------2-----------2------|----------------5-----------------|
---------2----------0--2--3--0-----|------5---5-----2----3---------2--|
-----------------------------2-----|----------------7---------2-------|
--------------0--------------11-----|----------------4-----------------|

---------5-----------------------|-------7---------------6----------|
--------------0--2--3------------|------------3----5---------------|
--------------------1----4----1--|-----------------------4---------|
----4---------------4------------|----4---------------4--6---------|

-----------0--------------7----0--|------------5--------2------0----|
---------------------0----2-------|---------------------0----------|
--4--------7--------------2-------|----2----------------2----------|
-------4---6--------------2-------|---------2-----------11----------|

------------------------------------|-----------9----9----5----8----------|
-------5----------------5-----------|-----------4----4----2----10---------|
--2----------6-----2----------6-----|--2----6---2----2----8----8---------|
------------------------------------|---------------------4----10-----7---|

----------------------------------------2----|
----4-----------------------------------10---|
--------------5-------5-------5---------2---|
----------7-------7-------4---------4---10---|

----0------------------------------|-------------------7----------0----|
--------------5----------------5---|----------------------------------|
---------2----------5-----2--------|----5-----2--------7--------------|
-----------------------------------|---------------7---7--------------|

-------------------------2---------|--0-------------------5--4--2------|
--3-----6-----0-----0----0---------|-------0---------0----------0-----|
--------------7---------------4----|----------------------------2-----|
-------------------------0---------|------------0---------------11-----|

------0--------------------0-----|---------------------------------9----|
---------------------------------|-------5--------------3--2----0------|
-----------6---------------4-----|--4--------------4---------------7---|
-----------------7---------6-----|-------------6-------------------9---|

----------------0----------0----|--8-------------------------------------2----|
----------------9--------------|--10-----------4------------------------14---|
--------4----------------------|--8---------------------5--------------2---|
-------------6--0--------------|--10-----7-----------7-------4---6--7---14---|

--------0----------------------0----|--------0------------6------------9----|
-----------------------5-------9---|-----------------------------5-------|
---------------------------6-------|-----------------7-------7---7-------|
-----------------7-------------0---|-----------------4---6---4-------9---|

--6---------------------7-----------7-----|-------7----------6-----------------|
------5-------5--3--5--5----------5----|--2----4----2----3----5-----------|
------7---7---4--------14-----4----12----|-------11---------10-------------6--|
--6-------6------6--0--7----------7----|-------7---------6---------7------|

---------------------------------||
--------5------------------------||
-----4------4--------------------||
--4------------7-----------------||

⇢ Não satisfeito com esta tablatura? Ver 3 outra(s) versão(ões)

Tab de uke por , 17 Abr 2012

Comentários da tab (1)

Tem algo para dizer?
Compartilhe seus Padrões de batida, acordes ou dicas para tocar esta aba!
Filtrar por:
megangoldberg avatar
Something about you makes the air crackle with anticipation. Let's see what ignites the spark. f1nd me on megangoldberg_mooo_com change _ to dot
05 Jul 2024
Comentário

Top Tablaturas e Cifras por Franz Schubert, não perca estas músicas!

Sobre esta música: Ave Maria

Nenhuma informação sobre esta música.

Você cobriu Ave Maria em seu Ukulele? Compartilhe seu trabalho!
Enviar um cover