Moonlight Sonata Tab de uke por Beethoven, Ludwig Van

0 Acordes usados na música:

9.5/10
ImprimirAdicionar tab ao seu Livro de Música

Veja estes acordes para o Barítono

Transpor cifras:
Diagramas de acordes:
Fixar acordes no topo enquanto rola

Tablature / Chords (Música Inteira)

Font size: A- A A+

Ano:  2007
Tom: desconhecidoAcordes
A: ------------0--------0--------0--------0--------0--------0
E: ---5-----0--------0--------0--------3--------0--------0---
C: 4-----0--------0--------0--------0--------0--------0------
G: ----------------------------------------------------------

A: --------0--------0--------0--------1--------1------------
E: -----0--------1--------1--------1--------1--------0--4---
C: --0--------0--------0--------0--2-----2--------2--------2
G: ---------------------------------------------------------

A: -----0--------0--2--------2--0-----0-----0--------0------
E: --0--------0-----------4-----0--0-----0--------0--------0
C: --------0-----------2-----------------------0--------0---
G: ---------------------------------------------------------

A: --0-----------2--------2--------2--------2--------0--0---
E: --------0--0--------0--------0--------0--------0--0------
C: -----0-----------2--------2--------2--------2-----------0
G: ---------------------------------------------------------

A: -----0--------0--------0-----------------------------2---
E: --0--------1--------1--------3--3-----0--3-----3--3-----1
C: --------0--2-----2--------2--------0--------0--2---------
G: ---------------------------------------------------------

A: -----2---------------------------------------------------
E: --3-----0--3-----0--3-----0--3-----0--3--------3--------3
C: --------0-----0--------0--------0--------0--0-----0--3---
G: ---------------------------------------------------------

A: --------------------------1------------------------------
E: --------3--------3-----------3--------3--------3--------3
C: --0--3-----0--3-----0--3--3-----1--3-----1--3-----1--3---
G: ---------------------------------------------------------

A: -----------------------------0--------0-----------1------
E: --------4--4-----3--4-----2-----------------3--3--------3
C: --1--3--3-----0--3-----0--3-----0--2-----0--2--------2---
G: ---------------------------------------------------------

A: --1--------------------------1--------1--------0--------0
E: --------3--5-----3--5-----3--------3--------2--------2---
C: -----0--------3--------2--------2--------2--------2------
G: ---------------------------------------------------------

A: -----1--------1--------2--------2------------------------
E: --3--------3--------3--------3--------3--------3--------3
C: --------2--------2--------2--------2-----0--3--0--0--3---
G: ---------------------------------------------------------

A: --------------------2--------2--------2--------2---------
E: --------2--------3--------3--------3--------3--------3---
C: --0--3--0--0--3--------2--------2--------2--------2-----0
G: ---------------------------------------------------------

A: -----------------------------------2--------2--------1---
E: -----3--------3--------2--------3--------3--------0------
C: --3--0--0--3-----0--3--0--0--3--------2--------2--------1
G: ---------------------------------------------------------

A: -----1-----------------------------------0-----------1---
E: --3--------3--5-----3--5--------5-----1--------3--3------
C: --------1--1-----4--------4--2-----2--------2--3--------3
G: ---------------------------------------------------------

A: -----1--------2--------2--0--------0--------0--------0---
E: --3-----4--1--------1-----------1--------1--------0------
C: --------2--------2-----------2--------2--------2--------1
G: ---------------------------------------------------------

A: -----------0-----0-----0--------0--------0--0------------
E: --0-----1-----1--------------1--------1--------0--3--5---
C: -----2--------------2-----2--------2--------------------4
G: ---------------------------------------------------------

A: -----------------------------------0--------2--------0---
E: --3--5-----3--5-----3--5--5-----1--------1--4-----0------
C: --------4--------4--------2--2--------2--------2--------2
G: ---------------------------------------------------------

A: -----2--------------------------2-----------0-----0------
E: --1--4-----0--4-----0--4-----0--4-----0--------0--------0
C: --------2--------2--------2--------2-----0-----------0---
G: ---------------------------------------------------------

A: --0--2-----------------------2--------2--------2--------2
E: -----------4--5-----2--0--4-----0--4-----1--4--------4---
C: -----2--2-----3--0--------------------------------2------
G: ---------------------------------------------------------

A: --------2--------2--------2--------2-----------0--------3
E: --0--4-----0--4-----1--4--------4-----0-----0--------0---
C: -----------------------------2--------0--0--------0------
G: ---------------------------------------------------------

A: --------0-----------------0-----------------0--------2---
E: -----0--------0--0-----0--------0--------0--------0--0--1
C: --0--------0-----0--0--------0-----0--0--------0---------
G: ---------------------------------------------------------

A: -----------2--------2--------------0--------0--------0---
E: -----4--1-----4--------1-----4--------0--------0--------0
C: --2--------------2--------2-----4--------0--------0------
G: ---------------------------------------------------------

A: --3--0-----0--------------0--------0--------------------2
E: --------0--0--------2--------2--------------2--0--4--1---
C: --------------3--0-----3--------0-----3--0-----2---------
G: ---------------------------------------------------------

A: --------2--------------2-----------2--------2------------
E: --4--------1-----4--1-----4-----1--------4-----1--4-----1
C: -----2--------2--------------2--------2--------------2---
G: ---------------------------------------------------------

A: --2--------2--------------2-----0------------------------
E: --------4-----1--4-----1--------------1--4-----0--1--0---
C: -----2--------------2--------2-----2--------2-----------2
G: ---------------------------------------------------------

A: --2--------0--------------------------1--------0---------
E: --------1--------1--4-----0--1--0-----------1--------1--4
C: -----2--------2--------2-----------2-----2--------2------
G: ---------------------------------------------------------

A: -----------------0-----0--0-----0--2-----0--2-----0--2---
E: -----0--1--0-----1--------------------1--------1-----0--0
C: --2-----------2-----0--------0-----2---------------------
G: ---------------------------------------------------------

A: -----2-----------------------------0--------0-----------2
E: --4-----0--4--5-----5-----5-----0--------0--------0--0---
C: -----------------4-----4-----0--------0--------0---------
G: ---------------------------------------------------------

A: --------2--------2--------2--------0--0--------0--------0
E: -----0--------0--------0--------0--0--------0--------1---
C: --2--------2--------2--------2-----------0--------0--2---
G: ---------------------------------------------------------

A: --------0-----------------------------2--------2---------
E: -----1--------3--3-----0--3-----3--3-----1--3--------3---
C: --2--------2--------0--------0--2-----------------0-----0
G: ---------------------------------------------------------

A: --------------------------------2------------------------
E: --3-----0--3-----0--3-----0--3--3-----1--3-----1--3-----1
C: -----0--------0--------0-----------2--------2--------2---
G: ---------------------------------------------------------

A: --------------------------------2--------0--------2------
E: --3-----1--3--3-----0--3-----0--4-----0--------0--4-----0
C: -----2--------0--0--------0--------2--------0--------2---
G: ---------------------------------------------------------

A: --2-----------0-----0--------0--1--------1---------------
E: --------0--------0--------0-----------1--------1--0-----0
C: -----2-----0-----------0--------2--2--------2--------2---
G: ---------------------------------------------------------

A: -----------0--------0--------0--------0--------0--------0
E: --4-----0--------0--------0--------0--------0--------1---
C: -----2--------0--------0--------1--------1--------2-----2
G: ---------------------------------------------------------

A: --------0--------0--------0--------0--------0--------0---
E: -----1--------1--4-----1--------0--------0--------0------
C: --2-----0--2-----2--2--------1--------1--------1--------1
G: ---------------------------------------------------------

A: -----0--------0--------0--------0--------0--------0------
E: --0--------1--------1--------1--4-----1--------0--------0
C: --------2-----2--2-----0--2-----2--2--------1--------1---
G: ---------------------------------------------------------

A: --0--------0--------2-----------------------------------0
E: --------1--------1--3-----1--3-----1--3-----1--3-----0--1
C: --2--2--------2--------2--------2--------2-----0--0------
G: ---------------------------------------------------------

A: --------2--2--------2-----0--0--------0--2-----0--2-----0
E: -----0--1--------4--------0--------1-----------------0---
C: --0-----------2--------2--------0--2--------2------------
G: ---------------------------------------------------------

A: --2-----0--2-----0--------0-----------2--------2--0-----0
E: -----1--------0--------0--------0--4--------4-----0--0---
C: -----2--------------0--------0--2--------2--------0------
G: ---------------------------------------------------------

A: -----0--------0--------0-----------2--------2--------2---
E: --0--------0--------0--------0--4--------0--------0------
C: --------0--------0--------0-----------2--------2--------2
G: ---------------------------------------------------------

A: -----2--------0-----0--------0-----3--0--7-----3--0------
E: --0--------0--0--------0--------0--------------------0--0
C: --------2--------0--------0-----------------4------------
G: ---------------------------------------------------------

A: --2--------------2--------------------0-----0--------0---
E: -----1--4-----1--------1--0--------0--0--------0--------0
C: -----------2--------2--------4--2--------0--------0------
G: ---------------------------------------------------------

A: --3--0--7-----3--0--------2--------------2---------------
E: --------------------0--0-----1--4-----1--------1--0------
C: -----------4-----------------------2--------2--------4--2
G: ---------------------------------------------------------

A: -----0-----0-----0-----0--------0--------0--0-----------0
E: --0--0--0-----------0--------0-----0-----0--------0------
C: --------------0-----------0-----------0--------0-----0---
G: ---------------------------------------------------------

A: -----0--------------0--0--0--
E: --0-----0-----0--------0-----
C: -----------0-----0-----0-----
G: -----------------------------

⇢ Não satisfeito com esta tablatura? Ver 5 outra(s) versão(ões)

Tab de uke por , 14 Mai 2015

Comentários da tab (0)

Nenhum comentário ainda :(
Precisa de ajuda, tem uma dica para compartilhar ou simplesmente quer falar sobre essa música? Inicie a discussão!

Tem algo para dizer?
Compartilhe seus Padrões de batida, acordes ou dicas para tocar esta aba!

Top Tablaturas e Cifras por Beethoven, Ludwig Van, não perca estas músicas!

Sobre esta música: Moonlight Sonata

Nenhuma informação sobre esta música.

Você cobriu Moonlight Sonata em seu Ukulele? Compartilhe seu trabalho!
Enviar um cover