When My Time Comes Tab de uke por Dawes

Ukulele Tab sem cifras.

9/10
ImprimirAdicionar tab ao seu Livro de Música

Tablature / Chords (Música Inteira)

Font size: A- A A+

Artista: 
Álbum: 
Ano:  2009
Tom: desconhecidoTablatura (sem cifras)
A|------7-7------|------7-7------|------7-7------|------7-7------|
E|--4------------|--4------------|--4------------|--5------------|
C|---------------|---------------|---------------|---------------|
G|----4-----4----|----4-----4----|----4-----4----|----6-----6----|

A|------7-7------|------7-7------|------7-7------|------7-7------|
E|--4------------|--4------------|--4------------|--5------------|
C|---------------|---------------|---------------|---------------|
G|----4-----4----|----4-----4----|----4-----4----|----6-----6----|

A|------7-7------|------7-7------|------7-7------|------7-7------|
E|--4------------|--4------------|--4------------|--5------------|
C|---------------|---------------|---------------|---------------|
G|----4-----4----|----4-----4----|----4-----4----|----6-----6----|

A|---------------|---------------|---------------|---------------|
E|------4-4------|------4-4------|------4-4------|-------5--5----|
C|----4-----4----|----4-----4----|----4-----4----|-----4-------4-|
G|--4------------|--4------------|--4------------|--6------------|

A|---------------|---------------|---------------|---------------|
E|-------4-4-----|-------4-4-----|-------4-4-----|------4-4------|
C|-----4----4----|-----4-----4---|-----4-----4---|----4-----4----|
G|--6------------|--6------------|--6------------|--6------------|

A|------7-7------|------7-7------|------7-7------|------7-7------|
E|--5------------|--5------------|--5------------|--5------------|
C|---------------|---------------|---------------|---------------|
G|----6-----6----|----6-----6----|----6-----6----|----6-----6----|

Tab de uke por , 25 Fev 2012

Comentários da tab (0)

Nenhum comentário ainda :(
Precisa de ajuda, tem uma dica para compartilhar ou simplesmente quer falar sobre essa música? Inicie a discussão!

Tem algo para dizer?
Compartilhe seus Padrões de batida, acordes ou dicas para tocar esta aba!

Top Tablaturas e Cifras por Dawes, não perca estas músicas!

Sobre esta música: When My Time Comes

Nenhuma informação sobre esta música.

Você cobriu When My Time Comes em seu Ukulele? Compartilhe seu trabalho!
Enviar um cover