My Little Pony Friendship Is Magic Opening taby ukulele według Themes

Taby ukulele bez chwytów.

9/10
WydrukujDodaj tab do śpiewnika

Tablature / Chords (Cały utwór)

Font size: A- A A+

Artysta: 
Album:  nieznane
Akord: nieznaneTabulatura (bez chwytów)
A|-2-5-2-0-5-----------------------0------|
E|---------------3-5-3-2-----0-2-3--------|
C|-----------------------2----------------|
G|----------------------------------------|


A|-------0-----2-2-2-2---0---2-0----------|
E|-3-2-3---3-----------3---3--------------|
C|----------------------------------------|
G|----------------------------------------|


A|-------0------5-5-5-2-0---2-0-----------|
E|-3-2-3---3--------------3---------------|
C|----------------------------------------|
G|----------------------------------------|


A|-------2-5-7-5------0-0-0-0-0-0-2-0-----|
E|-3-3-3---------3------------------------|
C|----------------------------------------|
G|----------------------------------------|


A|---0-2---5-5-5-7-5---0-0-0-2-7-5-7-5----|
E|-3-----3-----------3--------------------|
C|----------------------------------------|
G|----------------------------------------|


A|-------0-----0-2-2-3-2-0---2------------|
E|-3-2-3---3-3-------------3---3----------|
C|----------------------------------------|
G|----------------------------------------|

taby ukulele według , 15 mar 2017

Komentarze do tabów (1)

Chcesz coś powiedzieć?
Podziel się swoimi wzorami strummingowymi, akordami lub wskazówkami jak grać ten tabulator!
Filtruj według:
bingleborp avatar
nice tab bro
01 Apr 2020
Komentarz

O tej piosence: My Little Pony Friendship Is Magic Opening

Brak informacji o tej piosence.

Wykonałeś cover My Little Pony Friendship Is Magic Opening na swoim ukulele? Podziel się swoją pracą!
Dodaj przeróbkę