Harry Potter Theme Song taby ukulele według Themes

Taby ukulele bez chwytów.

9.3/10
WydrukujDodaj tab do śpiewnika

Tablature / Chords (Cały utwór)

Font size: A- A A+

Artysta: 
Album:  nieznane
Akord: nieznaneTabulatura (bez chwytów)
A------------7-5-----3-2---1--
E--0-5-8-7-5-----7-5-----3---0
C-----------------------------
G-----------------------------

A------------7-10-9-8-4-8-7-6----2-0
E--0-5-8-7-5-------------------3----
C-----------------------------------
G-----------------------------------

A---7--7--8-6-5-----6-5-------7-
E-8--8--8-------6-7--------5----
C-----------------------8-------
G-------------------------------

A---7--7--10-9-8-4-8-7-6----2-0
E-8--8--8----------------------
C------------------------3-----
G------------------------------

taby ukulele według , 14 mar 2011

Komentarze do tabów (6)

Chcesz coś powiedzieć?
Podziel się swoimi wzorami strummingowymi, akordami lub wskazówkami jak grać ten tabulator!
Filtruj według:
Owlhollow avatar
Really like this version; sounds a lot better than many and is the best version yet!
29 Nov 2020
Komentarz
ukulelelover123 avatar
mobile flag for PL(ISO2) (Wroc?aw)
The best version!
09 Jul 2019
Komentarz
ozpinelh avatar
this is a better version not like that one version where they usually use one string, this version makes the song more cleaner and less problem like when youre gonna have to change the note and it doesn't have that annoying stop, keep up the good work thumbs up
14 Feb 2019
Komentarz
KalaKiwi avatar
flag for PH(ISO2) (Pasig City)
Best version I've played
09 May 2017
Komentarz
Hawkberg avatar
perfect tab
25 Jun 2015
Komentarz
jewkulele avatar
flag for US(ISO2) (Falmouth)
best tab yet of this tune!
im bookmarking!
14 Mar 2011
Komentarz

Top Taby i chwyty Themes, nie przegap tych utworów!

O tej piosence: Harry Potter Theme Song

Brak informacji o tej piosence.

Wykonałeś cover Harry Potter Theme Song na swoim ukulele? Podziel się swoją pracą!
Dodaj przeróbkę