Sweater Weather taby ukulele według The Neighbourhood

Taby ukulele bez chwytów.

7/10
WydrukujDodaj tab do śpiewnika

Tablature / Chords (Cały utwór)

Font size: A- A A+

Album: 
Rok:  2013
Trudność: 
5
(zaawansowany)
Akord: Eb, F, Bb, Cm, Gm, DTabulatura (bez chwytów)
# Eb Eb                                               Strumming pattern - dduudu
A|--1--------------------------------------|
E|--3--------------------------------------|
C|--3--------------------------------------|
G|--0--------------------------------------|

# Cm Cm Chorus strum - d xx x
A|--3--------------------------------------|
E|--3--------------------------------------|
C|--3--------------------------------------|
G|--0--------------------------------------|

# Gm Gm
A|--1--------------------------------------|
E|--3--------------------------------------|
C|--2--------------------------------------|
G|--0--------------------------------------|

# Bb Bb
A|--0--------------------------------------|
E|--1--------------------------------------|
C|--2--------------------------------------|
G|--3--------------------------------------|

⇢ Nie podoba Ci się ta tablatura? Wyświetl 9 innych wersji

taby ukulele według , 24 lis 2013

Komentarze do tabów (0)

Nie ma jeszcze żadnych komentarzy :(
Potrzebujesz pomocy, masz wskazówkę którą chcesz się podzielić, czy chcesz po prostu porozmawiać o tej piosence? Rozpocznij dyskusje

Chcesz coś powiedzieć?
Podziel się swoimi wzorami strummingowymi, akordami lub wskazówkami jak grać ten tabulator!

Top Taby i chwyty The Neighbourhood, nie przegap tych utworów!

O tej piosence: Sweater Weather

Brak informacji o tej piosence.

Wykonałeś cover Sweater Weather na swoim ukulele? Podziel się swoją pracą!
Dodaj przeróbkę