In My Life (perfect Solo) (Solo) taby ukulele według The Beatles

Taby ukulele bez chwytów.

WydrukujDodaj tab do śpiewnika
Tablature / ChordsFont size: A- A A+

Nie wiesz jak przeczytać tab lub chwyt ? Sprawdź te lekcje ukulele:

H P         S S  H P                  S S                S S      
A|--------7---7-----|-----------------|-----------7------|-7-7-7-7-7-5-7---|
E|-5----5---2----4--|-2-4-5---------3-|-2-2-2-2-2---2----|--------5------5-|
C|------------------|--------2---2-4--|--4-2---------2---|--2--------------|
G|---4-6-------4----|------6---6------|------6-4-------4-|----6-4-------4--|
H P S S H P S S
A|--------7---7-----|-----------------|-----------7------|-7-7--------------------|
E|-5----5---2----4--|-2-4-5---------3-|-2-2-2-2-2---2----|-----5-4-5-4-2--------5-|
C|------------------|--------2---2-4--|--4-2---------2---|------4--------4-2-1----|
G|---4-6-------4----|------6---6------|------6-4-------4-|--6-6---------------4---|

 

Komentarze do tabów (0)
Nie ma jeszcze żadnych komentarzy :(
Potrzebujesz pomocy, masz wskazówkę którą chcesz się podzielić, czy chcesz po prostu porozmawiać o tej piosence? Rozpocznij dyskusje

musisz być zalogowany aby dołączyć do dyskusji
lub Zarejestruj

 

O tej piosence

Brak informacji o tej piosence.